  0
SECTION
  2
HEADER
  9
$ACADVER
  1
AC1015
  9
$ACADMAINTVER
 70
    20
  9
$DWGCODEPAGE
  3
ANSI_932
  9
$INSBASE
 10
0.0
 20
0.0
 30
0.0
  9
$EXTMIN
 10
-350.0274637248685
 20
-533.9823081977779
 30
-0.0015258207003583
  9
$EXTMAX
 10
550.0274679158201
 20
804.1680137850416
 30
0.0000000349246037
  9
$LIMMIN
 10
0.0
 20
0.0
  9
$LIMMAX
 10
0.0
 20
0.0
  9
$ORTHOMODE
 70
     0
  9
$REGENMODE
 70
     1
  9
$FILLMODE
 70
     1
  9
$QTEXTMODE
 70
     0
  9
$MIRRTEXT
 70
     1
  9
$LTSCALE
 40
25.4
  9
$ATTMODE
 70
     1
  9
$TEXTSIZE
 40
0.0
  9
$TRACEWID
 40
1.0
  9
$TEXTSTYLE
  7
STANDARD
  9
$CLAYER
  8
DATA
  9
$CELTYPE
  6
ByLayer
  9
$CECOLOR
 62
   256
  9
$CELTSCALE
 40
1.0
  9
$DISPSILH
 70
     0
  9
$DIMSCALE
 40
1.0
  9
$DIMASZ
 40
0.18
  9
$DIMEXO
 40
0.0625
  9
$DIMDLI
 40
0.38
  9
$DIMRND
 40
0.0
  9
$DIMDLE
 40
0.0
  9
$DIMEXE
 40
0.18
  9
$DIMTP
 40
0.0
  9
$DIMTM
 40
0.0
  9
$DIMTXT
 40
0.18
  9
$DIMCEN
 40
0.09
  9
$DIMTSZ
 40
0.0
  9
$DIMTOL
 70
     0
  9
$DIMLIM
 70
     0
  9
$DIMTIH
 70
     1
  9
$DIMTOH
 70
     1
  9
$DIMSE1
 70
     0
  9
$DIMSE2
 70
     0
  9
$DIMTAD
 70
     0
  9
$DIMZIN
 70
     0
  9
$DIMBLK
  1

  9
$DIMASO
 70
     1
  9
$DIMSHO
 70
     1
  9
$DIMPOST
  1

  9
$DIMAPOST
  1

  9
$DIMALT
 70
     0
  9
$DIMALTD
 70
     2
  9
$DIMALTF
 40
25.4
  9
$DIMLFAC
 40
1.0
  9
$DIMTOFL
 70
     0
  9
$DIMTVP
 40
0.0
  9
$DIMTIX
 70
     0
  9
$DIMSOXD
 70
     0
  9
$DIMSAH
 70
     0
  9
$DIMBLK1
  1

  9
$DIMBLK2
  1

  9
$DIMSTYLE
  2
STANDARD
  9
$DIMCLRD
 70
     0
  9
$DIMCLRE
 70
     0
  9
$DIMCLRT
 70
     0
  9
$DIMTFAC
 40
1.0
  9
$DIMGAP
 40
0.09
  9
$DIMJUST
 70
     0
  9
$DIMSD1
 70
     0
  9
$DIMSD2
 70
     0
  9
$DIMTOLJ
 70
     1
  9
$DIMTZIN
 70
     0
  9
$DIMALTZ
 70
     0
  9
$DIMALTTZ
 70
     0
  9
$DIMUPT
 70
     0
  9
$DIMDEC
 70
     4
  9
$DIMTDEC
 70
     4
  9
$DIMALTU
 70
     2
  9
$DIMALTTD
 70
     2
  9
$DIMTXSTY
  7
STANDARD
  9
$DIMAUNIT
 70
     0
  9
$DIMADEC
 70
     0
  9
$DIMALTRND
 40
0.0
  9
$DIMAZIN
 70
     0
  9
$DIMDSEP
 70
    46
  9
$DIMATFIT
 70
     3
  9
$DIMFRAC
 70
     0
  9
$DIMLDRBLK
  1

  9
$DIMLUNIT
 70
     2
  9
$DIMLWD
 70
    -2
  9
$DIMLWE
 70
    -2
  9
$DIMTMOVE
 70
     0
  9
$LUNITS
 70
     2
  9
$LUPREC
 70
     4
  9
$SKETCHINC
 40
0.1
  9
$FILLETRAD
 40
0.0
  9
$AUNITS
 70
     0
  9
$AUPREC
 70
     0
  9
$MENU
  1
acad
  9
$ELEVATION
 40
0.0
  9
$PELEVATION
 40
0.0
  9
$THICKNESS
 40
0.0
  9
$LIMCHECK
 70
     0
  9
$CHAMFERA
 40
0.0
  9
$CHAMFERB
 40
0.0
  9
$CHAMFERC
 40
0.0
  9
$CHAMFERD
 40
0.0
  9
$SKPOLY
 70
     0
  9
$TDCREATE
 40
2457823.469768519
  9
$TDUCREATE
 40
2457823.094768519
  9
$TDUPDATE
 40
2457823.483020833
  9
$TDUUPDATE
 40
2457823.108020833
  9
$TDINDWG
 40
0.0003125000
  9
$TDUSRTIMER
 40
0.0003125000
  9
$USRTIMER
 70
     1
  9
$ANGBASE
 50
0.0
  9
$ANGDIR
 70
     0
  9
$PDMODE
 70
     1
  9
$PDSIZE
 40
-2.0
  9
$PLINEWID
 40
0.0
  9
$SPLFRAME
 70
     0
  9
$SPLINETYPE
 70
     6
  9
$SPLINESEGS
 70
     8
  9
$HANDSEED
  5
3DF
  9
$SURFTAB1
 70
     6
  9
$SURFTAB2
 70
     6
  9
$SURFTYPE
 70
     6
  9
$SURFU
 70
     6
  9
$SURFV
 70
     6
  9
$UCSBASE
  2

  9
$UCSNAME
  2

  9
$UCSORG
 10
0.0
 20
0.0
 30
0.0
  9
$UCSXDIR
 10
1.0
 20
0.0
 30
0.0
  9
$UCSYDIR
 10
0.0
 20
1.0
 30
0.0
  9
$UCSORTHOREF
  2

  9
$UCSORTHOVIEW
 70
     0
  9
$UCSORGTOP
 10
0.0
 20
0.0
 30
0.0
  9
$UCSORGBOTTOM
 10
0.0
 20
0.0
 30
0.0
  9
$UCSORGLEFT
 10
0.0
 20
0.0
 30
0.0
  9
$UCSORGRIGHT
 10
0.0
 20
0.0
 30
0.0
  9
$UCSORGFRONT
 10
0.0
 20
0.0
 30
0.0
  9
$UCSORGBACK
 10
0.0
 20
0.0
 30
0.0
  9
$PUCSBASE
  2

  9
$PUCSNAME
  2

  9
$PUCSORG
 10
0.0
 20
0.0
 30
0.0
  9
$PUCSXDIR
 10
1.0
 20
0.0
 30
0.0
  9
$PUCSYDIR
 10
0.0
 20
1.0
 30
0.0
  9
$PUCSORTHOREF
  2

  9
$PUCSORTHOVIEW
 70
     0
  9
$PUCSORGTOP
 10
0.0
 20
0.0
 30
0.0
  9
$PUCSORGBOTTOM
 10
0.0
 20
0.0
 30
0.0
  9
$PUCSORGLEFT
 10
0.0
 20
0.0
 30
0.0
  9
$PUCSORGRIGHT
 10
0.0
 20
0.0
 30
0.0
  9
$PUCSORGFRONT
 10
0.0
 20
0.0
 30
0.0
  9
$PUCSORGBACK
 10
0.0
 20
0.0
 30
0.0
  9
$USERI1
 70
     0
  9
$USERI2
 70
     0
  9
$USERI3
 70
     0
  9
$USERI4
 70
     0
  9
$USERI5
 70
     0
  9
$USERR1
 40
0.0
  9
$USERR2
 40
0.0
  9
$USERR3
 40
0.0
  9
$USERR4
 40
0.0
  9
$USERR5
 40
0.0
  9
$WORLDVIEW
 70
     1
  9
$SHADEDGE
 70
     3
  9
$SHADEDIF
 70
    70
  9
$TILEMODE
 70
     1
  9
$MAXACTVP
 70
    64
  9
$PINSBASE
 10
0.0
 20
0.0
 30
0.0
  9
$PLIMCHECK
 70
     0
  9
$PEXTMIN
 10
1.000000000000000E+20
 20
1.000000000000000E+20
 30
1.000000000000000E+20
  9
$PEXTMAX
 10
-1.000000000000000E+20
 20
-1.000000000000000E+20
 30
-1.000000000000000E+20
  9
$PLIMMIN
 10
0.0
 20
0.0
  9
$PLIMMAX
 10
12.0
 20
9.0
  9
$UNITMODE
 70
     0
  9
$VISRETAIN
 70
     0
  9
$PLINEGEN
 70
     1
  9
$PSLTSCALE
 70
     0
  9
$TREEDEPTH
 70
  3020
  9
$CMLSTYLE
  2
Standard
  9
$CMLJUST
 70
     0
  9
$CMLSCALE
 40
1.0
  9
$PROXYGRAPHICS
 70
     1
  9
$MEASUREMENT
 70
     0
  9
$CELWEIGHT
370
    -1
  9
$ENDCAPS
280
     0
  9
$JOINSTYLE
280
     0
  9
$LWDISPLAY
290
     0
  9
$INSUNITS
 70
     0
  9
$HYPERLINKBASE
  1

  9
$STYLESHEET
  1

  9
$XEDIT
290
     1
  9
$CEPSNTYPE
380
     0
  9
$PSTYLEMODE
290
     1
  9
$FINGERPRINTGUID
  2
{B4F723A6-EB50-C847-B9E3-9F4591676B00}
  9
$VERSIONGUID
  2
{753676D1-B31F-2841-BDE5-A7A0137E4537}
  9
$EXTNAMES
290
     1
  9
$PSVPSCALE
 40
0.0
  9
$OLESTARTUP
290
     0
  0
ENDSEC
  0
SECTION
  2
CLASSES
  0
CLASS
  1
ACDBDICTIONARYWDFLT
  2
AcDbDictionaryWithDefault
  3
ObjectDBX Classes
 90
        0
280
     0
281
     0
  0
CLASS
  1
MATERIAL
  2
AcDbMaterial
  3
ObjectDBX Classes
 90
     1153
280
     0
281
     0
  0
CLASS
  1
VISUALSTYLE
  2
AcDbVisualStyle
  3
ObjectDBX Classes
 90
     4095
280
     0
281
     0
  0
CLASS
  1
SCALE
  2
AcDbScale
  3
ObjectDBX Classes
 90
     1153
280
     0
281
     0
  0
CLASS
  1
TABLESTYLE
  2
AcDbTableStyle
  3
ObjectDBX Classes
 90
     4095
280
     0
281
     0
  0
CLASS
  1
MLEADERSTYLE
  2
AcDbMLeaderStyle
  3
ACDB_MLEADERSTYLE_CLASS
 90
     4095
280
     0
281
     0
  0
CLASS
  1
ACDBSECTIONVIEWSTYLE
  2
AcDbSectionViewStyle
  3
ObjectDBX Classes
 90
     1025
280
     0
281
     0
  0
CLASS
  1
ACDBDETAILVIEWSTYLE
  2
AcDbDetailViewStyle
  3
ObjectDBX Classes
 90
     1025
280
     0
281
     0
  0
CLASS
  1
DICTIONARYVAR
  2
AcDbDictionaryVar
  3
ObjectDBX Classes
 90
        0
280
     0
281
     0
  0
CLASS
  1
CELLSTYLEMAP
  2
AcDbCellStyleMap
  3
ObjectDBX Classes
 90
     1152
280
     0
281
     0
  0
CLASS
  1
ACDBPLACEHOLDER
  2
AcDbPlaceHolder
  3
ObjectDBX Classes
 90
        0
280
     0
281
     0
  0
CLASS
  1
LAYOUT
  2
AcDbLayout
  3
ObjectDBX Classes
 90
        0
280
     0
281
     0
  0
ENDSEC
  0
SECTION
  2
TABLES
  0
TABLE
  2
VPORT
  5
306
330
0
100
AcDbSymbolTable
 70
     1
  0
VPORT
  5
372
330
306
100
AcDbSymbolTableRecord
100
AcDbViewportTableRecord
  2
*ACTIVE
 70
     0
 10
0.0
 20
0.0
 11
1.0
 21
1.0
 12
100.0000020954758
 22
135.0928527936319
 13
0.0
 23
0.0
 14
1.0
 24
1.0
 15
0.0
 25
0.0
 16
0.0
 26
0.0
 36
1.0
 17
0.0
 27
0.0
 37
0.0
 40
1345.598282958605
 41
2.358402971216341
 42
50.0
 43
0.0
 44
0.0
 50
0.0
 51
0.0
 71
     0
 72
  2000
 73
     1
 74
     1
 75
     0
 76
     0
 77
     0
 78
     0
281
     0
 65
     1
110
0.0
120
0.0
130
0.0
111
1.0
121
0.0
131
0.0
112
0.0
122
1.0
132
0.0
 79
     0
146
0.0
1001
ACAD_NAV_VCDISPLAY
1070
     3
  0
ENDTAB
  0
TABLE
  2
LTYPE
  5
303
330
0
100
AcDbSymbolTable
 70
    11
  0
LTYPE
  5
358
330
303
100
AcDbSymbolTableRecord
100
AcDbLinetypeTableRecord
  2
ByBlock
 70
     0
  3

 72
    65
 73
     0
 40
0.0
  0
LTYPE
  5
359
330
303
100
AcDbSymbolTableRecord
100
AcDbLinetypeTableRecord
  2
ByLayer
 70
     0
  3

 72
    65
 73
     0
 40
0.0
  0
LTYPE
  5
35A
330
303
100
AcDbSymbolTableRecord
100
AcDbLinetypeTableRecord
  2
CONTINUOUS
 70
     0
  3
Solid line
 72
    65
 73
     0
 40
0.0
  0
ENDTAB
  0
TABLE
  2
LAYER
  5
300
330
0
100
AcDbSymbolTable
 70
     6
  0
LAYER
  5
352
102
{ACAD_XDICTIONARY
360
387
102
}
330
300
100
AcDbSymbolTableRecord
100
AcDbLayerTableRecord
  2
0
 70
     0
 62
     7
  6
CONTINUOUS
370
    -3
390
30D
  0
LAYER
  5
371
102
{ACAD_XDICTIONARY
360
389
102
}
330
300
100
AcDbSymbolTableRecord
100
AcDbLayerTableRecord
  2
DATA
 70
     0
 62
     7
  6
CONTINUOUS
370
    -3
390
30D
  0
LAYER
  5
37D
102
{ACAD_XDICTIONARY
360
38B
102
}
330
300
100
AcDbSymbolTableRecord
100
AcDbLayerTableRecord
  2
HIBINO-BASE
 70
     0
 62
     7
  6
CONTINUOUS
370
    -3
390
30D
  0
LAYER
  5
37E
102
{ACAD_XDICTIONARY
360
38D
102
}
330
300
100
AcDbSymbolTableRecord
100
AcDbLayerTableRecord
  2
PATTERN_FILL
 70
     0
 62
     7
  6
CONTINUOUS
370
    -3
390
30D
  0
LAYER
  5
37F
102
{ACAD_XDICTIONARY
360
38F
102
}
330
300
100
AcDbSymbolTableRecord
100
AcDbLayerTableRecord
  2
SPEC
 70
     0
 62
     7
  6
CONTINUOUS
370
    -3
390
30D
  0
LAYER
  5
380
102
{ACAD_XDICTIONARY
360
391
102
}
330
300
100
AcDbSymbolTableRecord
100
AcDbLayerTableRecord
  2
DIMNSIONS
 70
     0
 62
     7
  6
CONTINUOUS
370
    -3
390
30D
  0
ENDTAB
  0
TABLE
  2
STYLE
  5
301
330
0
100
AcDbSymbolTable
 70
     3
  0
STYLE
  5
353
330
301
100
AcDbSymbolTableRecord
100
AcDbTextStyleTableRecord
  2
STANDARD
 70
     0
 40
0.0
 41
1.0
 50
0.0
 71
     0
 42
0.0
  3
txt
  4
BIGFONT.SHX
  0
ENDTAB
  0
TABLE
  2
VIEW
  5
304
330
0
100
AcDbSymbolTable
 70
     0
  0
ENDTAB
  0
TABLE
  2
UCS
  5
305
330
0
100
AcDbSymbolTable
 70
     0
  0
ENDTAB
  0
TABLE
  2
APPID
  5
307
330
0
100
AcDbSymbolTable
 70
     4
  0
APPID
  5
354
330
307
100
AcDbSymbolTableRecord
100
AcDbRegAppTableRecord
  2
ACAD
 70
     0
  0
APPID
  5
35B
330
307
100
AcDbSymbolTableRecord
100
AcDbRegAppTableRecord
  2
AcadAnnotative
 70
     0
  0
APPID
  5
39D
330
307
100
AcDbSymbolTableRecord
100
AcDbRegAppTableRecord
  2
ACAD_NAV_VCDISPLAY
 70
     0
  0
APPID
  5
3D6
330
307
100
AcDbSymbolTableRecord
100
AcDbRegAppTableRecord
  2
ACAD_MLEADERVER
 70
     0
  0
ENDTAB
  0
TABLE
  2
DIMSTYLE
  5
308
330
0
100
AcDbSymbolTable
 70
     2
100
AcDbDimStyleTable
 71
     0
  0
DIMSTYLE
105
355
330
308
100
AcDbSymbolTableRecord
100
AcDbDimStyleTableRecord
  2
STANDARD
 70
     0
279
     2
340
353
  0
ENDTAB
  0
TABLE
  2
BLOCK_RECORD
  5
2FF
330
0
100
AcDbSymbolTable
 70
     0
  0
BLOCK_RECORD
  5
36D
330
2FF
100
AcDbSymbolTableRecord
100
AcDbBlockTableRecord
  2
*Model_Space
340
370
  0
BLOCK_RECORD
  5
369
330
2FF
100
AcDbSymbolTableRecord
100
AcDbBlockTableRecord
  2
*Paper_Space
340
36C
  0
ENDTAB
  0
ENDSEC
  0
SECTION
  2
BLOCKS
  0
BLOCK
  5
36E
330
36D
100
AcDbEntity
  8
0
100
AcDbBlockBegin
  2
*Model_Space
 70
     0
 10
0.0
 20
0.0
 30
0.0
  3
*Model_Space
  1

  0
ENDBLK
  5
36F
330
36D
100
AcDbEntity
  8
0
100
AcDbBlockEnd
  0
BLOCK
  5
36A
330
369
100
AcDbEntity
 67
     1
  8
0
100
AcDbBlockBegin
  2
*Paper_Space
 70
     0
 10
0.0
 20
0.0
 30
0.0
  3
*Paper_Space
  1

  0
ENDBLK
  5
36B
330
369
100
AcDbEntity
 67
     1
  8
0
100
AcDbBlockEnd
  0
ENDSEC
  0
SECTION
  2
ENTITIES
  0
LINE
  5
2D
330
36D
100
AcDbEntity
  8
HIBINO-BASE
  6
Continuous
 62
     7
100
AcDbLine
 10
-350.0
 20
804.1272600000002
 30
0.0
 11
549.9999999999999
 21
804.1272600000002
 31
0.0
  0
LINE
  5
2E
330
36D
100
AcDbEntity
  8
HIBINO-BASE
  6
Continuous
 62
     7
100
AcDbLine
 10
549.9999999999999
 20
-495.8727399999999
 30
0.0
 11
-350.0
 21
-495.8727399999999
 31
0.0
  0
LINE
  5
2F
330
36D
100
AcDbEntity
  8
HIBINO-BASE
  6
Continuous
 62
     7
100
AcDbLine
 10
-350.0
 20
-495.8727399999999
 30
0.0
 11
-350.0
 21
804.1272600000002
 31
0.0
  0
TEXT
  5
30
330
36D
100
AcDbEntity
  8
HIBINO-BASE
 62
     7
100
AcDbText
 10
-314.0799999999999
 20
-527.9161289999998
 30
0.0
 40
18.00022089843749
  1
Hibino Corporation
 41
0.7
 11
-314.0799999999999
 21
-509.9159081015623
 31
0.0
100
AcDbText
 73
     3
  0
LINE
  5
31
330
36D
100
AcDbEntity
  8
HIBINO-BASE
  6
Continuous
 62
     7
100
AcDbLine
 10
549.9999999999999
 20
804.1272600000002
 30
0.0
 11
549.9999999999999
 21
-495.8727399999999
 31
0.0
  0
LINE
  5
32
330
36D
100
AcDbEntity
  8
HIBINO-BASE
  6
Continuous
 62
     7
100
AcDbLine
 10
100.0
 20
-383.3727399999999
 30
0.0
 11
549.9999999999999
 21
-383.3727399999999
 31
0.0
  0
LINE
  5
33
330
36D
100
AcDbEntity
  8
HIBINO-BASE
  6
Continuous
 62
     7
100
AcDbLine
 10
100.0
 20
-495.8727399999999
 30
0.0
 11
100.0
 21
-383.3727399999999
 31
0.0
  0
TEXT
  5
34
330
36D
100
AcDbEntity
  8
HIBINO-BASE
 62
     7
100
AcDbText
 10
104.5
 20
-395.9162066666666
 30
0.0
 40
8.144205729166666
  1
NOTE
 41
0.7
 11
104.5
 21
-387.7720009374999
 31
0.0
100
AcDbText
 73
     3
  0
LINE
  5
35
330
36D
100
AcDbEntity
  8
HIBINO-BASE
  6
Continuous
 62
     7
100
AcDbLine
 10
275.0
 20
-495.8727399999999
 30
0.0
 11
275.0
 21
-383.3727399999999
 31
0.0
  0
TEXT
  5
36
330
36D
100
AcDbEntity
  8
HIBINO-BASE
 62
     7
100
AcDbText
 10
279.5
 20
-395.9162066666666
 30
0.0
 40
8.144205729166666
  1
TITLE
 41
0.7
 11
279.5
 21
-387.7720009374999
 31
0.0
100
AcDbText
 73
     3
  0
TEXT
  5
37
330
36D
100
AcDbEntity
  8
HIBINO-BASE
 62
     7
100
AcDbText
 10
350.34195
 20
-527.9161289999998
 30
0.0
 40
18.00022089843749
  1
ヒビノ株式会社
 41
0.7
 11
350.34195
 21
-509.9159081015623
 31
0.0
100
AcDbText
 73
     3
  0
LINE
  5
38
330
36D
100
AcDbEntity
  8
HIBINO-BASE
  6
Continuous
 62
     7
100
AcDbLine
 10
100.0
 20
-445.8727399999999
 30
0.0
 11
549.9999999999999
 21
-445.8727399999999
 31
0.0
  0
TEXT
  5
39
330
36D
100
AcDbEntity
  8
HIBINO-BASE
 62
     7
100
AcDbText
 10
342.0
 20
-458.1346066666666
 30
0.0
 40
8.144205729166666
  1
DRAWN
 41
0.7
 11
342.0
 21
-449.9904009374999
 31
0.0
100
AcDbText
 73
     3
  0
TEXT
  5
3A
330
36D
100
AcDbEntity
  8
HIBINO-BASE
 62
     7
100
AcDbText
 10
217.0
 20
-458.1346066666666
 30
0.0
 40
8.144205729166666
  1
DATE
 41
0.7
 11
217.0
 21
-449.9904009374999
 31
0.0
100
AcDbText
 73
     3
  0
TEXT
  5
3B
330
36D
100
AcDbEntity
  8
HIBINO-BASE
 62
     7
100
AcDbText
 10
167.0
 20
-458.1346066666666
 30
0.0
 40
8.144205729166666
  1
SCALE
 41
0.7
 11
167.0
 21
-449.9904009374999
 31
0.0
100
AcDbText
 73
     3
  0
TEXT
  5
3C
330
36D
100
AcDbEntity
  8
HIBINO-BASE
 62
     7
100
AcDbText
 10
279.5
 20
-458.1346066666666
 30
0.0
 40
8.144205729166666
  1
DESIGN
 41
0.7
 11
279.5
 21
-449.9904009374999
 31
0.0
100
AcDbText
 73
     3
  0
TEXT
  5
3D
330
36D
100
AcDbEntity
  8
HIBINO-BASE
 62
     7
100
AcDbText
 10
467.0
 20
-458.1346066666666
 30
0.0
 40
8.144205729166666
  1
DRAWING NO.
 41
0.7
 11
467.0
 21
-449.9904009374999
 31
0.0
100
AcDbText
 73
     3
  0
TEXT
  5
3E
330
36D
100
AcDbEntity
  8
HIBINO-BASE
 62
     7
100
AcDbText
 10
404.4999999999999
 20
-458.1346066666666
 30
0.0
 40
8.144205729166666
  1
CHECK
 41
0.7
 11
404.4999999999999
 21
-449.9904009374999
 31
0.0
100
AcDbText
 73
     3
  0
LINE
  5
3F
330
36D
100
AcDbEntity
  8
HIBINO-BASE
  6
Continuous
 62
     7
100
AcDbLine
 10
171.875
 20
-489.6227399999999
 30
0.0
 11
190.625
 21
-470.8727399999999
 31
0.0
  0
TEXT
  5
40
330
36D
100
AcDbEntity
  8
HIBINO-BASE
 62
     7
100
AcDbText
 10
168.75
 20
-476.4174566666667
 30
0.0
 40
8.144205729166666
  1
1
 41
0.7
 11
168.75
 21
-468.2732509374999
 31
0.0
100
AcDbText
 73
     3
  0
LINE
  5
41
330
36D
100
AcDbEntity
  8
HIBINO-BASE
  6
Continuous
 62
     7
100
AcDbLine
 10
162.5
 20
-495.8727399999999
 30
0.0
 11
162.5
 21
-445.8727399999999
 31
0.0
  0
LINE
  5
42
330
36D
100
AcDbEntity
  8
HIBINO-BASE
  6
Continuous
 62
     7
100
AcDbLine
 10
212.5
 20
-495.8727399999999
 30
0.0
 11
212.5
 21
-445.8727399999999
 31
0.0
  0
LINE
  5
43
330
36D
100
AcDbEntity
  8
HIBINO-BASE
  6
Continuous
 62
     7
100
AcDbLine
 10
337.5
 20
-445.8727399999999
 30
0.0
 11
337.5
 21
-495.8727399999999
 31
0.0
  0
LINE
  5
44
330
36D
100
AcDbEntity
  8
HIBINO-BASE
  6
Continuous
 62
     7
100
AcDbLine
 10
462.5
 20
-445.8727399999999
 30
0.0
 11
462.5
 21
-495.8727399999999
 31
0.0
  0
LINE
  5
45
330
36D
100
AcDbEntity
  8
HIBINO-BASE
  6
Continuous
 62
     7
100
AcDbLine
 10
400.0
 20
-495.8727399999999
 30
0.0
 11
400.0
 21
-445.8727399999999
 31
0.0
  0
TEXT
  5
46
330
36D
100
AcDbEntity
  8
HIBINO-BASE
 62
     7
100
AcDbText
 10
216.7827
 20
-481.5545066666667
 30
0.0
 40
8.144205729166666
  1
'17.02.
 41
0.7
 11
216.7827
 21
-473.4103009374999
 31
0.0
100
AcDbText
 73
     3
  0
TEXT
  5
47
330
36D
100
AcDbEntity
  8
HIBINO-BASE
 62
     7
100
AcDbText
 10
187.5
 20
-485.7924566666667
 30
0.0
 40
8.144205729166666
  1
5
 41
0.7
 11
187.5
 21
-477.6482509374999
 31
0.0
100
AcDbText
 73
     3
  0
TEXT
  5
48
330
36D
100
AcDbEntity
  8
HIBINO-BASE
 62
     7
100
AcDbText
 10
345.0290500551731
 20
-481.5545066666667
 30
0.0
 40
8.144205729166666
  1
N.Sasaki
 41
0.7
 11
345.0290500551731
 21
-473.4103009374999
 31
0.0
100
AcDbText
 73
     3
  0
TEXT
  5
49
330
36D
100
AcDbEntity
  8
HIBINO-BASE
 62
     7
100
AcDbText
 10
119.4166666666667
 20
-485.99274
 30
0.0
 40
16.28841145833333
  1
A4
 41
0.7
 11
119.4166666666667
 21
-469.7043285416667
 31
0.0
100
AcDbText
 73
     3
  0
TEXT
  5
4A
330
36D
100
AcDbEntity
  8
HIBINO-BASE
 62
     7
100
AcDbText
 10
104.7916666666666
 20
-458.9700149999999
 30
0.0
 40
8.144205729166666
  1
PAPER SIZE
 41
0.7
 11
104.7916666666666
 21
-450.8258092708333
 31
0.0
100
AcDbText
 73
     3
  0
LINE
  5
4B
330
36D
100
AcDbEntity
  8
PATTERN_FILL
  6
Continuous
 62
     7
100
AcDbLine
 10
-70.90892864666741
 20
27.19399079178311
 30
0.0
 11
-53.49484882084972
 21
17.13996711665754
 31
0.0
  0
LINE
  5
4C
330
36D
100
AcDbEntity
  8
PATTERN_FILL
  6
Continuous
 62
     7
100
AcDbLine
 10
-80.77073056958637
 20
26.88770478667516
 30
0.0
 11
-48.82919932052995
 21
8.446253121703421
 31
0.0
  0
LINE
  5
4D
330
36D
100
AcDbEntity
  8
PATTERN_FILL
  6
Continuous
 62
     7
100
AcDbLine
 10
-87.24289351716654
 20
24.62440980669976
 30
0.0
 11
-47.55318879558401
 21
1.70954810163721
 31
0.0
  0
LINE
  5
4E
330
36D
100
AcDbEntity
  8
PATTERN_FILL
  6
Continuous
 62
     7
100
AcDbLine
 10
-92.17879024115985
 20
21.47415110898965
 30
0.0
 11
-47.81344449430117
 21
-4.140193200650173
 31
0.0
  0
LINE
  5
4F
330
36D
100
AcDbEntity
  8
PATTERN_FILL
  6
Continuous
 62
     7
100
AcDbLine
 10
-96.04251519058323
 20
17.70487374861386
 30
0.0
 11
-49.14587196766719
 21
-9.370915840226871
 31
0.0
  0
LINE
  5
50
330
36D
100
AcDbEntity
  8
PATTERN_FILL
  6
Continuous
 62
     7
100
AcDbLine
 10
-99.00563992121899
 20
13.41563460948873
 30
0.0
 11
-51.37889965971091
 21
-14.08167670111743
 31
0.0
  0
LINE
  5
51
330
36D
100
AcDbEntity
  8
PATTERN_FILL
  6
Continuous
 62
     7
100
AcDbLine
 10
-101.1104962493708
 20
8.630873977152987
 30
0.0
 11
-54.47019575418337
 21
-18.29691606882875
 31
0.0
  0
LINE
  5
52
330
36D
100
AcDbEntity
  8
PATTERN_FILL
  6
Continuous
 62
     7
100
AcDbLine
 10
-102.2992007972461
 20
3.31717286785556
 30
0.0
 11
-58.47764362909959
 21
-21.98321495948267
 31
0.0
  0
LINE
  5
53
330
36D
100
AcDbEntity
  8
PATTERN_FILL
  6
Continuous
 62
     7
100
AcDbLine
 10
-102.3729635160729
 20
-2.640240206573707
 30
0.0
 11
-63.60003333295027
 21
-25.02580188507023
 31
0.0
  0
LINE
  5
54
330
36D
100
AcDbEntity
  8
PATTERN_FILL
  6
Continuous
 62
     7
100
AcDbLine
 10
-100.7861482167669
 20
-9.556388446782191
 30
0.0
 11
-70.38300105492045
 21
-27.10965364488607
 31
0.0
  0
LINE
  5
55
330
36D
100
AcDbEntity
  8
PATTERN_FILL
  6
Continuous
 62
     7
100
AcDbLine
 10
-94.95322319533036
 20
-18.92402927807166
 30
0.0
 11
-81.41207849919965
 21
-26.74201281351839
 31
0.0
  0
LINE
  5
56
330
36D
100
AcDbEntity
  8
PATTERN_FILL
  6
Continuous
 62
     7
100
AcDbLine
 10
-94.32696486873693
 20
19.56319066418268
 30
0.0
 11
-101.6057025286071
 21
6.956047222322467
 31
0.0
  0
LINE
  5
57
330
36D
100
AcDbEntity
  8
PATTERN_FILL
  6
Continuous
 62
     7
100
AcDbLine
 10
-84.78336147850667
 20
25.70089177793466
 30
0.0
 11
-102.14930591885
 21
-4.377806314158305
 31
0.0
  0
LINE
  5
58
330
36D
100
AcDbEntity
  8
PATTERN_FILL
  6
Continuous
 62
     7
100
AcDbLine
 10
-77.82887403895085
 20
27.35411251843175
 30
0.0
 11
-100.1037933584225
 21
-11.22717947739079
 31
0.0
  0
LINE
  5
59
330
36D
100
AcDbEntity
  8
PATTERN_FILL
  6
Continuous
 62
     7
100
AcDbLine
 10
-71.84920214002616
 20
27.31890321454784
 30
0.0
 11
-97.08346525733979
 21
-16.38812259620068
 31
0.0
  0
LINE
  5
5A
330
36D
100
AcDbEntity
  8
PATTERN_FILL
  6
Continuous
 62
     7
100
AcDbLine
 10
-66.51861977160901
 20
26.15943786516414
 30
0.0
 11
-93.41404762576306
 21
-20.42480966953394
 31
0.0
  0
LINE
  5
5B
330
36D
100
AcDbEntity
  8
PATTERN_FILL
  6
Continuous
 62
     7
100
AcDbLine
 10
-61.71896991647418
 20
24.08037042738488
 30
0.0
 11
-89.21369748089786
 21
-23.54189465446143
 31
0.0
  0
LINE
  5
5C
330
36D
100
AcDbEntity
  8
PATTERN_FILL
  6
Continuous
 62
     7
100
AcDbLine
 10
-57.41498645729474
 20
21.1427836082064
 30
0.0
 11
-84.51768094007126
 21
-25.80046025797924
 31
0.0
  0
LINE
  5
5D
330
36D
100
AcDbEntity
  8
PATTERN_FILL
  6
Continuous
 62
     7
100
AcDbLine
 10
-53.62935534889938
 20
17.30738418124701
 30
0.0
 11
-79.30331204845415
 21
-27.16121325370523
 31
0.0
  0
LINE
  5
5E
330
36D
100
AcDbEntity
  8
PATTERN_FILL
  6
Continuous
 62
     7
100
AcDbLine
 10
-50.45820551688134
 20
12.40767196330284
 30
0.0
 11
-73.47446188048481
 21
-27.45765345848895
 31
0.0
  0
LINE
  5
5F
330
36D
100
AcDbEntity
  8
PATTERN_FILL
  6
Continuous
 62
     7
100
AcDbLine
 10
-48.1611730152455
 20
5.99394411735966
 30
0.0
 11
-66.77149438213771
 21
-26.24007803528229
 31
0.0
  0
LINE
  5
60
330
36D
100
AcDbEntity
  8
PATTERN_FILL
  6
Continuous
 62
     7
100
AcDbLine
 10
-47.74761580625762
 20
-3.68205863025014
 30
0.0
 11
-58.18505159109317
 21
-21.76022771032285
 31
0.0
  0
TEXT
  5
61
330
36D
100
AcDbEntity
  8
SPEC
 62
     7
100
AcDbText
 10
-306.25
 20
761.0936099999999
 30
0.0
 40
12.21630859375
  1
仕様
 41
0.7
 11
-306.25
 21
773.3099185937499
 31
0.0
100
AcDbText
 73
     3
  0
LINE
  5
62
330
36D
100
AcDbEntity
  8
SPEC
  6
Continuous
 62
     7
100
AcDbLine
 10
-312.5
 20
754.1272599999999
 30
0.0
 11
425.0
 21
754.1272599999999
 31
0.0
  0
LINE
  5
63
330
36D
100
AcDbEntity
  8
SPEC
  6
Continuous
 62
     7
100
AcDbLine
 10
-312.5
 20
716.6272599999999
 30
0.0
 11
425.0
 21
716.6272599999999
 31
0.0
  0
LINE
  5
64
330
36D
100
AcDbEntity
  8
SPEC
  6
Continuous
 62
     7
100
AcDbLine
 10
-312.5
 20
679.1272599999999
 30
0.0
 11
425.0
 21
679.1272599999999
 31
0.0
  0
LINE
  5
65
330
36D
100
AcDbEntity
  8
SPEC
  6
Continuous
 62
     7
100
AcDbLine
 10
-312.5
 20
697.8772599999999
 30
0.0
 11
425.0
 21
697.8772599999999
 31
0.0
  0
LINE
  5
66
330
36D
100
AcDbEntity
  8
SPEC
  6
Continuous
 62
     7
100
AcDbLine
 10
-312.5
 20
547.87726
 30
0.0
 11
425.0
 21
547.87726
 31
0.0
  0
LINE
  5
67
330
36D
100
AcDbEntity
  8
SPEC
  6
Continuous
 62
     7
100
AcDbLine
 10
-312.5
 20
529.12726
 30
0.0
 11
425.0
 21
529.12726
 31
0.0
  0
LINE
  5
68
330
36D
100
AcDbEntity
  8
SPEC
  6
Continuous
 62
     7
100
AcDbLine
 10
-312.5
 20
754.1272599999999
 30
0.0
 11
-312.5
 21
491.6272599999999
 31
0.0
  0
LINE
  5
69
330
36D
100
AcDbEntity
  8
SPEC
  6
Continuous
 62
     7
100
AcDbLine
 10
-112.5
 20
754.1272599999999
 30
0.0
 11
-112.5
 21
491.6272599999999
 31
0.0
  0
LINE
  5
6A
330
36D
100
AcDbEntity
  8
SPEC
  6
Continuous
 62
     7
100
AcDbLine
 10
425.0
 20
754.1272599999999
 30
0.0
 11
425.0
 21
491.6272599999999
 31
0.0
  0
LINE
  5
6B
330
36D
100
AcDbEntity
  8
SPEC
  6
Continuous
 62
     7
100
AcDbLine
 10
-312.5
 20
660.3772600000001
 30
0.0
 11
425.0
 21
660.3772600000001
 31
0.0
  0
LINE
  5
6C
330
36D
100
AcDbEntity
  8
SPEC
  6
Continuous
 62
     7
100
AcDbLine
 10
-149.9999999999999
 20
622.87726
 30
0.0
 11
425.0
 21
622.87726
 31
0.0
  0
LINE
  5
6D
330
36D
100
AcDbEntity
  8
SPEC
  6
Continuous
 62
     7
100
AcDbLine
 10
-312.5
 20
641.62726
 30
0.0
 11
425.0
 21
641.62726
 31
0.0
  0
LINE
  5
6E
330
36D
100
AcDbEntity
  8
SPEC
  6
Continuous
 62
     7
100
AcDbLine
 10
-312.5
 20
604.12726
 30
0.0
 11
425.0
 21
604.12726
 31
0.0
  0
LINE
  5
6F
330
36D
100
AcDbEntity
  8
SPEC
  6
Continuous
 62
     7
100
AcDbLine
 10
-149.9999999999999
 20
585.37726
 30
0.0
 11
425.0
 21
585.37726
 31
0.0
  0
LINE
  5
70
330
36D
100
AcDbEntity
  8
SPEC
  6
Continuous
 62
     7
100
AcDbLine
 10
-312.5
 20
566.62726
 30
0.0
 11
425.0
 21
566.62726
 31
0.0
  0
LINE
  5
71
330
36D
100
AcDbEntity
  8
SPEC
  6
Continuous
 62
     7
100
AcDbLine
 10
-312.5
 20
735.3772599999999
 30
0.0
 11
425.0
 21
735.3772599999999
 31
0.0
  0
TEXT
  5
72
330
36D
100
AcDbEntity
  8
SPEC
 62
     7
100
AcDbText
 10
-107.9999999999999
 20
514.3168488888887
 30
0.0
 40
9.501573350694446
  1
5.3kg
 41
0.7
 11
-107.9999999999999
 21
523.8184222395832
 31
0.0
100
AcDbText
 73
     3
  0
TEXT
  5
73
330
36D
100
AcDbEntity
  8
SPEC
 62
     7
100
AcDbText
 10
-107.9999999999999
 20
739.3168488888886
 30
0.0
 40
9.501573350694446
  1
43Hz～19kHz
 41
0.7
 11
-107.9999999999999
 21
748.818422239583
 31
0.0
100
AcDbText
 73
     3
  0
TEXT
  5
74
330
36D
100
AcDbEntity
  8
SPEC
 62
     7
100
AcDbText
 10
-308.0
 20
495.5668488888888
 30
0.0
 40
9.501573350694446
  1
付属品
 41
0.7
 11
-308.0
 21
505.0684222395832
 31
0.0
100
AcDbText
 73
     3
  0
TEXT
  5
75
330
36D
100
AcDbEntity
  8
SPEC
 62
     7
100
AcDbText
 10
-107.9999999999999
 20
495.5668488888888
 30
0.0
 40
9.501573350694446
  1
開口テンプレート
 41
0.7
 11
-107.9999999999999
 21
505.0684222395832
 31
0.0
100
AcDbText
 73
     3
  0
TEXT
  5
76
330
36D
100
AcDbEntity
  8
SPEC
 62
     7
100
AcDbText
 10
-308.0
 20
739.3168488888886
 30
0.0
 40
9.501573350694446
  1
周波数レンジ(-10dB)
 41
0.7
 11
-308.0
 21
748.818422239583
 31
0.0
100
AcDbText
 73
     3
  0
TEXT
  5
77
330
36D
100
AcDbEntity
  8
SPEC
 62
     7
100
AcDbText
 10
-308.0
 20
720.5668488888886
 30
0.0
 40
9.501573350694446
  1
カバレージ角(1～16kHz平均)
 41
0.7
 11
-308.0
 21
730.068422239583
 31
0.0
100
AcDbText
 73
     3
  0
TEXT
  5
78
330
36D
100
AcDbEntity
  8
SPEC
 62
     7
100
AcDbText
 10
-107.9999999999999
 20
720.5668488888886
 30
0.0
 40
9.501573350694446
  1
120°
 41
0.7
 11
-107.9999999999999
 21
730.068422239583
 31
0.0
100
AcDbText
 73
     3
  0
TEXT
  5
79
330
36D
100
AcDbEntity
  8
SPEC
 62
     7
100
AcDbText
 10
-308.0
 20
683.0668488888886
 30
0.0
 40
9.501573350694446
  1
感度(1W、1m)
 41
0.7
 11
-308.0
 21
692.5684222395831
 31
0.0
100
AcDbText
 73
     3
  0
TEXT
  5
7A
330
36D
100
AcDbEntity
  8
SPEC
 62
     7
100
AcDbText
 10
-107.9999999999999
 20
683.0668488888886
 30
0.0
 40
9.501573350694446
  1
90dB SPL
 41
0.7
 11
-107.9999999999999
 21
692.5684222395831
 31
0.0
100
AcDbText
 73
     3
  0
TEXT
  5
7B
330
36D
100
AcDbEntity
  8
SPEC
 62
     7
100
AcDbText
 10
-308.0
 20
664.3168488888886
 30
0.0
 40
9.501573350694446
  1
最大音圧レベル
 41
0.7
 11
-308.0
 21
673.8184222395831
 31
0.0
100
AcDbText
 73
     3
  0
TEXT
  5
7C
330
36D
100
AcDbEntity
  8
SPEC
 62
     7
100
AcDbText
 10
-107.9999999999999
 20
664.3168488888886
 30
0.0
 40
9.501573350694446
  1
112dB SPL
 41
0.7
 11
-107.9999999999999
 21
673.8184222395831
 31
0.0
100
AcDbText
 73
     3
  0
TEXT
  5
7D
330
36D
100
AcDbEntity
  8
SPEC
 62
     7
100
AcDbText
 10
-308.0
 20
645.5668488888886
 30
0.0
 40
9.501573350694446
  1
公称インピーダンス
 41
0.7
 11
-308.0
 21
655.0684222395831
 31
0.0
100
AcDbText
 73
     3
  0
TEXT
  5
7E
330
36D
100
AcDbEntity
  8
SPEC
 62
     7
100
AcDbText
 10
-308.0
 20
589.3168488888887
 30
0.0
 40
9.501573350694446
  1
ドライバー構成
 41
0.7
 11
-308.0
 21
598.8184222395832
 31
0.0
100
AcDbText
 73
     3
  0
TEXT
  5
7F
330
36D
100
AcDbEntity
  8
SPEC
 62
     7
100
AcDbText
 10
-107.9999999999999
 20
589.3168488888887
 30
0.0
 40
9.501573350694446
  1
165mm
 41
0.7
 11
-107.9999999999999
 21
598.8184222395832
 31
0.0
100
AcDbText
 73
     3
  0
TEXT
  5
80
330
36D
100
AcDbEntity
  8
SPEC
 62
     7
100
AcDbText
 10
-308.0
 20
533.0668488888887
 30
0.0
 40
9.501573350694446
  1
寸法(φ×H)
 41
0.7
 11
-308.0
 21
542.5684222395832
 31
0.0
100
AcDbText
 73
     3
  0
TEXT
  5
81
330
36D
100
AcDbEntity
  8
SPEC
 62
     7
100
AcDbText
 10
-107.9999999999999
 20
533.0668488888887
 30
0.0
 40
9.501573350694446
  1
305×158mm
 41
0.7
 11
-107.9999999999999
 21
542.5684222395832
 31
0.0
100
AcDbText
 73
     3
  0
TEXT
  5
82
330
36D
100
AcDbEntity
  8
SPEC
 62
     7
100
AcDbText
 10
-308.0
 20
514.3168488888887
 30
0.0
 40
9.501573350694446
  1
質量
 41
0.7
 11
-308.0
 21
523.8184222395832
 31
0.0
100
AcDbText
 73
     3
  0
TEXT
  5
83
330
36D
100
AcDbEntity
  8
SPEC
 62
     7
100
AcDbText
 10
-308.0
 20
551.8168488888888
 30
0.0
 40
9.501573350694446
  1
クロスオーバー周波数
 41
0.7
 11
-308.0
 21
561.3184222395833
 31
0.0
100
AcDbText
 73
     3
  0
TEXT
  5
84
330
36D
100
AcDbEntity
  8
SPEC
 62
     7
100
AcDbText
 10
-107.9999999999999
 20
551.8168488888887
 30
0.0
 40
9.501573350694446
  1
2.2kHz
 41
0.7
 11
-107.9999999999999
 21
561.3184222395832
 31
0.0
100
AcDbText
 73
     3
  0
TEXT
  5
85
330
36D
100
AcDbEntity
  8
SPEC
 62
     7
100
AcDbText
 10
-107.9999999999999
 20
570.5668488888887
 30
0.0
 40
9.501573350694446
  1
25mm
 41
0.7
 11
-107.9999999999999
 21
580.0684222395832
 31
0.0
100
AcDbText
 73
     3
  0
TEXT
  5
86
330
36D
100
AcDbEntity
  8
SPEC
 62
     7
100
AcDbText
 10
-145.4999999999999
 20
570.5668488888887
 30
0.0
 40
9.501573350694446
  1
HF
 41
0.7
 11
-145.4999999999999
 21
580.0684222395832
 31
0.0
100
AcDbText
 73
     3
  0
TEXT
  5
87
330
36D
100
AcDbEntity
  8
SPEC
 62
     7
100
AcDbText
 10
-145.4999999999999
 20
589.3168488888887
 30
0.0
 40
9.501573350694446
  1
LF
 41
0.7
 11
-145.4999999999999
 21
598.8184222395832
 31
0.0
100
AcDbText
 73
     3
  0
LINE
  5
88
330
36D
100
AcDbEntity
  8
SPEC
  6
Continuous
 62
     7
100
AcDbLine
 10
-312.5
 20
510.3772599999999
 30
0.0
 11
425.0
 21
510.3772599999999
 31
0.0
  0
LINE
  5
89
330
36D
100
AcDbEntity
  8
SPEC
  6
Continuous
 62
     7
100
AcDbLine
 10
-312.5
 20
491.6272599999999
 30
0.0
 11
425.0
 21
491.6272599999999
 31
0.0
  0
LINE
  5
8A
330
36D
100
AcDbEntity
  8
SPEC
  6
Continuous
 62
     7
100
AcDbLine
 10
-149.9999999999999
 20
641.62726
 30
0.0
 11
-149.9999999999999
 21
566.62726
 31
0.0
  0
TEXT
  5
8B
330
36D
100
AcDbEntity
  8
SPEC
 62
     7
100
AcDbText
 10
-308.0
 20
626.8168488888887
 30
0.0
 40
9.501573350694446
  1
トランス・タップ
 41
0.7
 11
-308.0
 21
636.3184222395832
 31
0.0
100
AcDbText
 73
     3
  0
TEXT
  5
8C
330
36D
100
AcDbEntity
  8
SPEC
 62
     7
100
AcDbText
 10
-107.9999999999999
 20
626.8168488888887
 30
0.0
 40
9.501573350694446
  1
68W、34W、17W
 41
0.7
 11
-107.9999999999999
 21
636.3184222395832
 31
0.0
100
AcDbText
 73
     3
  0
TEXT
  5
8D
330
36D
100
AcDbEntity
  8
SPEC
 62
     7
100
AcDbText
 10
-107.9999999999999
 20
608.0668488888887
 30
0.0
 40
9.501573350694446
  1
68W、34W、17W、8.5W
 41
0.7
 11
-107.9999999999999
 21
617.5684222395832
 31
0.0
100
AcDbText
 73
     3
  0
TEXT
  5
8E
330
36D
100
AcDbEntity
  8
SPEC
 62
     7
100
AcDbText
 10
-145.4999999999999
 20
608.0668488888887
 30
0.0
 40
9.501573350694446
  1
70V
 41
0.7
 11
-145.4999999999999
 21
617.5684222395832
 31
0.0
100
AcDbText
 73
     3
  0
TEXT
  5
8F
330
36D
100
AcDbEntity
  8
SPEC
 62
     7
100
AcDbText
 10
-145.4999999999999
 20
626.8168488888887
 30
0.0
 40
9.501573350694446
  1
100V
 41
0.7
 11
-145.4999999999999
 21
636.3184222395832
 31
0.0
100
AcDbText
 73
     3
  0
TEXT
  5
90
330
36D
100
AcDbEntity
  8
SPEC
 62
     7
100
AcDbText
 10
-107.9999999999999
 20
701.8168488888886
 30
0.0
 40
9.501573350694446
  1
─
 41
0.7
 11
-107.9999999999999
 21
711.3184222395831
 31
0.0
100
AcDbText
 73
     3
  0
TEXT
  5
91
330
36D
100
AcDbEntity
  8
SPEC
 62
     7
100
AcDbText
 10
-107.9999999999999
 20
645.5668488888886
 30
0.0
 40
9.501573350694446
  1
─
 41
0.7
 11
-107.9999999999999
 21
655.0684222395831
 31
0.0
100
AcDbText
 73
     3
  0
TEXT
  5
92
330
36D
100
AcDbEntity
  8
SPEC
 62
     7
100
AcDbText
 10
-308.0
 20
701.8168488888886
 30
0.0
 40
9.501573350694446
  1
許容入力(プログラム/ピンク)※
 41
0.7
 11
-308.0
 21
711.3184222395831
 31
0.0
100
AcDbText
 73
     3
  0
TEXT
  5
93
330
36D
100
AcDbEntity
  8
SPEC
 62
     7
100
AcDbText
 10
-300.0
 20
470.0390925
 30
0.0
 40
9.501573350694446
  1
※100時間、ピンクノイズ:IEC/クレストファクター6dB
 41
0.7
 11
-300.0
 21
479.5406658506944
 31
0.0
100
AcDbText
 73
     3
  0
TEXT
  5
94
330
36D
100
AcDbEntity
  8
DIMNSIONS
 62
     7
100
AcDbText
 10
-0.0000000000000149
 20
-434.5252900000001
 30
0.0
 40
12.21630859375
  1
(単位：mm)
 41
0.7
 11
-0.0000000000000142
 21
-422.30898140625
 31
0.0
100
AcDbText
 73
     3
  0
LINE
  5
95
330
36D
100
AcDbEntity
  8
DIMNSIONS
  6
Continuous
 62
     7
100
AcDbLine
 10
-202.4889222375376
 20
64.96595036410323
 30
0.0
 11
-131.1143647164644
 21
218.0291829163524
 31
0.0
  0
LINE
  5
96
330
36D
100
AcDbEntity
  8
DIMNSIONS
  6
Continuous
 62
     7
100
AcDbLine
 10
56.71510485494606
 20
-55.90287249373742
 30
0.0
 11
128.0896623760192
 21
97.16036005851172
 31
0.0
  0
LINE
  5
97
330
36D
100
AcDbEntity
  8
DIMNSIONS
  6
Continuous
 62
     7
100
AcDbLine
 10
-135.3405473338715
 20
208.9661050459859
 30
0.0
 11
123.8634797586122
 21
88.09728218814525
 31
0.0
  0
LINE
  5
98
330
36D
100
AcDbEntity
  8
DIMNSIONS
  6
Continuous
 62
     7
100
AcDbLine
 10
-135.3405473338715
 20
208.9661050459859
 30
0.0
 11
-122.5557367504288
 21
206.9411899770721
 31
0.0
  0
LINE
  5
99
330
36D
100
AcDbEntity
  8
DIMNSIONS
  6
Continuous
 62
     7
100
AcDbLine
 10
-135.3405473338715
 20
208.9661050459859
 30
0.0
 11
-125.2810341204948
 21
200.8200718640793
 31
0.0
  0
LINE
  5
9A
330
36D
100
AcDbEntity
  8
DIMNSIONS
  6
Continuous
 62
     7
100
AcDbLine
 10
123.8634797586122
 20
88.09728218814525
 30
0.0
 11
111.1159560045296
 21
90.34501456321207
 31
0.0
  0
LINE
  5
9B
330
36D
100
AcDbEntity
  8
DIMNSIONS
  6
Continuous
 62
     7
100
AcDbLine
 10
123.8634797586122
 20
88.09728218814525
 30
0.0
 11
113.9476665397645
 21
96.41763740290315
 31
0.0
  0
TEXT
  5
9C
330
36D
100
AcDbEntity
  8
DIMNSIONS
 62
     7
100
AcDbText
 10
-15.83936171157757
 20
158.1732733417379
 30
0.0
 40
13.57367621527778
  1
286
 50
335.0
 41
0.7
 11
-10.10287826404581
 21
170.4752017943583
 31
0.0
100
AcDbText
 73
     3
  0
LINE
  5
9D
330
36D
100
AcDbEntity
  8
DIMNSIONS
  6
Continuous
 62
     7
100
AcDbLine
 10
137.5
 20
157.4999999999999
 30
0.0
 11
137.5
 21
222.5
 31
0.0
  0
LINE
  5
9E
330
36D
100
AcDbEntity
  8
DIMNSIONS
  6
Continuous
 62
     7
100
AcDbLine
 10
295.5
 20
-67.09909228906986
 30
0.0
 11
295.5
 21
222.5
 31
0.0
  0
LINE
  5
9F
330
36D
100
AcDbEntity
  8
DIMNSIONS
  6
Continuous
 62
     7
100
AcDbLine
 10
137.5
 20
212.5
 30
0.0
 11
295.5
 21
212.5
 31
0.0
  0
LINE
  5
A0
330
36D
100
AcDbEntity
  8
DIMNSIONS
  6
Continuous
 62
     7
100
AcDbLine
 10
137.5
 20
212.5
 30
0.0
 11
150.0031127929687
 21
215.8501989757512
 31
0.0
  0
LINE
  5
A1
330
36D
100
AcDbEntity
  8
DIMNSIONS
  6
Continuous
 62
     7
100
AcDbLine
 10
137.5
 20
212.5
 30
0.0
 11
150.0031127929687
 21
209.1498010242488
 31
0.0
  0
LINE
  5
A2
330
36D
100
AcDbEntity
  8
DIMNSIONS
  6
Continuous
 62
     7
100
AcDbLine
 10
295.5
 20
212.5
 30
0.0
 11
282.9968872070312
 21
209.1498010242488
 31
0.0
  0
LINE
  5
A3
330
36D
100
AcDbEntity
  8
DIMNSIONS
  6
Continuous
 62
     7
100
AcDbLine
 10
295.5
 20
212.5
 30
0.0
 11
282.9968872070312
 21
215.8501989757512
 31
0.0
  0
TEXT
  5
A4
330
36D
100
AcDbEntity
  8
DIMNSIONS
 62
     7
100
AcDbText
 10
203.2708333333333
 20
216.9694444444444
 30
0.0
 40
13.57367621527778
  1
158
 41
0.7
 11
203.2708333333333
 21
230.5431206597222
 31
0.0
100
AcDbText
 73
     3
  0
LINE
  5
A5
330
36D
100
AcDbEntity
  8
DIMNSIONS
  6
Continuous
 62
     7
100
AcDbLine
 10
137.5
 20
157.4999999999999
 30
0.0
 11
137.5
 21
197.5
 31
0.0
  0
LINE
  5
A6
330
36D
100
AcDbEntity
  8
DIMNSIONS
  6
Continuous
 62
     7
100
AcDbLine
 10
281.5013333266318
 20
11.90090771093014
 30
0.0
 11
281.5013333266318
 21
197.5
 31
0.0
  0
LINE
  5
A7
330
36D
100
AcDbEntity
  8
DIMNSIONS
  6
Continuous
 62
     7
100
AcDbLine
 10
137.5
 20
187.5
 30
0.0
 11
281.5013333266318
 21
187.5
 31
0.0
  0
LINE
  5
A8
330
36D
100
AcDbEntity
  8
DIMNSIONS
  6
Continuous
 62
     7
100
AcDbLine
 10
137.5
 20
187.5
 30
0.0
 11
150.0031127929687
 21
190.8501989757512
 31
0.0
  0
LINE
  5
A9
330
36D
100
AcDbEntity
  8
DIMNSIONS
  6
Continuous
 62
     7
100
AcDbLine
 10
137.5
 20
187.5
 30
0.0
 11
150.0031127929687
 21
184.1498010242488
 31
0.0
  0
LINE
  5
AA
330
36D
100
AcDbEntity
  8
DIMNSIONS
  6
Continuous
 62
     7
100
AcDbLine
 10
281.5013333266318
 20
187.5
 30
0.0
 11
268.9982205336631
 21
184.1498010242488
 31
0.0
  0
LINE
  5
AB
330
36D
100
AcDbEntity
  8
DIMNSIONS
  6
Continuous
 62
     7
100
AcDbLine
 10
281.5013333266318
 20
187.5
 30
0.0
 11
268.9982205336631
 21
190.8501989757512
 31
0.0
  0
TEXT
  5
AC
330
36D
100
AcDbEntity
  8
DIMNSIONS
 62
     7
100
AcDbText
 10
196.2714999966492
 20
191.9694444444444
 30
0.0
 40
13.57367621527778
  1
144
 41
0.7
 11
196.2714999966492
 21
205.5431206597222
 31
0.0
100
AcDbText
 73
     3
  0
LINE
  5
AD
330
36D
100
AcDbEntity
  8
DIMNSIONS
  6
Continuous
 62
     7
100
AcDbLine
 10
139.5
 20
157.4999999999999
 30
0.0
 11
139.5
 21
172.5
 31
0.0
  0
LINE
  5
AE
330
36D
100
AcDbEntity
  8
DIMNSIONS
  6
Continuous
 62
     7
100
AcDbLine
 10
281.5013333266318
 20
11.90090771093014
 30
0.0
 11
281.5013333266318
 21
172.5
 31
0.0
  0
LINE
  5
AF
330
36D
100
AcDbEntity
  8
DIMNSIONS
  6
Continuous
 62
     7
100
AcDbLine
 10
139.5
 20
162.5
 30
0.0
 11
281.5013333266318
 21
162.5
 31
0.0
  0
LINE
  5
B0
330
36D
100
AcDbEntity
  8
DIMNSIONS
  6
Continuous
 62
     7
100
AcDbLine
 10
139.5
 20
162.5
 30
0.0
 11
152.0031127929687
 21
165.8501989757512
 31
0.0
  0
LINE
  5
B1
330
36D
100
AcDbEntity
  8
DIMNSIONS
  6
Continuous
 62
     7
100
AcDbLine
 10
139.5
 20
162.5
 30
0.0
 11
152.0031127929687
 21
159.1498010242487
 31
0.0
  0
LINE
  5
B2
330
36D
100
AcDbEntity
  8
DIMNSIONS
  6
Continuous
 62
     7
100
AcDbLine
 10
281.5013333266318
 20
162.5
 30
0.0
 11
268.9982205336631
 21
159.1498010242487
 31
0.0
  0
LINE
  5
B3
330
36D
100
AcDbEntity
  8
DIMNSIONS
  6
Continuous
 62
     7
100
AcDbLine
 10
281.5013333266318
 20
162.5
 30
0.0
 11
268.9982205336631
 21
165.8501989757512
 31
0.0
  0
TEXT
  5
B4
330
36D
100
AcDbEntity
  8
DIMNSIONS
 62
     7
100
AcDbText
 10
197.2714999966492
 20
166.9694444444444
 30
0.0
 40
13.57367621527778
  1
142
 41
0.7
 11
197.2714999966492
 21
180.5431206597221
 31
0.0
100
AcDbText
 73
     3
  0
LINE
  5
B5
330
36D
100
AcDbEntity
  8
DIMNSIONS
  6
Continuous
 62
     7
100
AcDbLine
 10
-128.6073435995004
 20
132.6659440557569
 30
0.0
 11
-284.8317628279286
 21
75.80490559108437
 31
0.0
  0
LINE
  5
B6
330
36D
100
AcDbEntity
  8
DIMNSIONS
  6
Continuous
 62
     7
100
AcDbLine
 10
-30.78958260835868
 20
-136.086145489014
 30
0.0
 11
-187.0140018367869
 21
-192.9471839536865
 31
0.0
  0
LINE
  5
B7
330
36D
100
AcDbEntity
  8
DIMNSIONS
  6
Continuous
 62
     7
100
AcDbLine
 10
-275.4348366200696
 20
79.22510702434106
 30
0.0
 11
-177.6170756289278
 21
-189.5269825204298
 31
0.0
  0
LINE
  5
B8
330
36D
100
AcDbEntity
  8
DIMNSIONS
  6
Continuous
 62
     7
100
AcDbLine
 10
-275.4348366200696
 20
79.22510702434106
 30
0.0
 11
-267.8264415368874
 21
68.7530495880474
 31
0.0
  0
LINE
  5
B9
330
36D
100
AcDbEntity
  8
DIMNSIONS
  6
Continuous
 62
     7
100
AcDbLine
 10
-275.4348366200696
 20
79.22510702434106
 30
0.0
 11
-274.081801914152
 21
66.35184171302995
 31
0.0
  0
LINE
  5
BA
330
36D
100
AcDbEntity
  8
DIMNSIONS
  6
Continuous
 62
     7
100
AcDbLine
 10
-177.6170756289278
 20
-189.5269825204298
 30
0.0
 11
-185.0415493140739
 21
-178.9237352258791
 31
0.0
  0
LINE
  5
BB
330
36D
100
AcDbEntity
  8
DIMNSIONS
  6
Continuous
 62
     7
100
AcDbLine
 10
-177.6170756289278
 20
-189.5269825204298
 30
0.0
 11
-178.745234802718
 21
-176.6320641581672
 31
0.0
  0
TEXT
  5
BC
330
36D
100
AcDbEntity
  8
DIMNSIONS
 62
     7
100
AcDbText
 10
-226.2012186085432
 20
-69.110928073333
 30
0.0
 40
13.57367621527778
  1
286
 50
110.0
 41
0.7
 11
-238.956301984977
 21
-73.75339875793852
 31
0.0
100
AcDbText
 73
     3
  0
LINE
  5
BD
330
36D
100
AcDbEntity
  8
DIMNSIONS
  6
Continuous
 62
     7
100
AcDbLine
 10
-172.6281209488331
 20
-117.1537451385998
 30
0.0
 11
-200.0
 21
-150.0
 31
0.0
  0
LINE
  5
BE
330
36D
100
AcDbEntity
  8
DIMNSIONS
  6
Continuous
 62
     7
100
AcDbLine
 10
-172.6281209488331
 20
-117.1537451385998
 30
0.0
 11
-177.8929911769621
 21
-128.978837280811
 31
0.0
  0
LINE
  5
BF
330
36D
100
AcDbEntity
  8
DIMNSIONS
  6
Continuous
 62
     7
100
AcDbLine
 10
-172.6281209488331
 20
-117.1537451385998
 30
0.0
 11
-183.1001783851268
 21
-124.7621402217819
 31
0.0
  0
LINE
  5
C0
330
36D
100
AcDbEntity
  8
DIMNSIONS
  6
Continuous
 62
     7
100
AcDbLine
 10
-200.0
 20
-150.0
 30
0.0
 11
-210.0
 21
-150.0
 31
0.0
  0
TEXT
  5
C1
330
36D
100
AcDbEntity
  8
DIMNSIONS
 62
     7
100
AcDbText
 10
-254.0972222222221
 20
-156.3499999999999
 30
0.0
 40
13.57367621527778
  1
φ305
 41
0.7
 11
-254.0972222222221
 21
-142.7763237847222
 31
0.0
100
AcDbText
 73
     3
  0
TEXT
  5
C2
330
36D
100
AcDbEntity
  8
DIMNSIONS
 62
     7
100
AcDbText
 10
-62.50000000000002
 20
188.5111111111111
 30
0.0
 40
13.57367621527778
  1
取付穴(4ヵ所)
 41
0.7
 11
-62.50000000000002
 21
202.0847873263889
 31
0.0
100
AcDbText
 73
     3
  0
LINE
  5
C3
330
36D
100
AcDbEntity
  8
DIMNSIONS
  6
Continuous
 62
     7
100
AcDbLine
 10
-25.61520867846601
 20
-135.7985456988158
 30
0.0
 11
-12.49999999999998
 21
-175.0
 31
0.0
  0
LINE
  5
C4
330
36D
100
AcDbEntity
  8
DIMNSIONS
  6
Continuous
 62
     7
100
AcDbLine
 10
-25.61520867846601
 20
-135.7985456988158
 30
0.0
 11
-18.37691795796292
 21
-146.5297529997817
 31
0.0
  0
LINE
  5
C5
330
36D
100
AcDbEntity
  8
DIMNSIONS
  6
Continuous
 62
     7
100
AcDbLine
 10
-25.61520867846601
 20
-135.7985456988158
 30
0.0
 11
-24.71226868501608
 21
-148.7111891949808
 31
0.0
  0
LINE
  5
C6
330
36D
100
AcDbEntity
  8
DIMNSIONS
  6
Continuous
 62
     7
100
AcDbLine
 10
-12.49999999999998
 20
-175.0
 30
0.0
 11
-2.499999999999985
 21
-175.0
 31
0.0
  0
TEXT
  5
C7
330
36D
100
AcDbEntity
  8
DIMNSIONS
 62
     7
100
AcDbText
 10
-2.499999999999986
 20
-181.3499999999999
 30
0.0
 40
13.57367621527778
  1
M3グリル取付穴(4ヵ所)
 41
0.7
 11
-2.499999999999985
 21
-167.7763237847222
 31
0.0
100
AcDbText
 73
     3
  0
LINE
  5
C8
330
36D
100
AcDbEntity
  8
DIMNSIONS
  6
Continuous
 62
     7
100
AcDbLine
 10
-202.760114318633
 20
63.11207967486661
 30
0.0
 11
-100.0
 21
212.5
 31
0.0
  0
LINE
  5
C9
330
36D
100
AcDbEntity
  8
DIMNSIONS
  6
Continuous
 62
     7
100
AcDbLine
 10
-202.760114318633
 20
63.11207967486661
 30
0.0
 11
-198.3329457793082
 21
75.27562526878108
 31
0.0
  0
LINE
  5
CA
330
36D
100
AcDbEntity
  8
DIMNSIONS
  6
Continuous
 62
     7
100
AcDbLine
 10
-202.760114318633
 20
63.11207967486661
 30
0.0
 11
-192.8443010997853
 21
71.4324348896245
 31
0.0
  0
LINE
  5
CB
330
36D
100
AcDbEntity
  8
DIMNSIONS
  6
Continuous
 62
     7
100
AcDbLine
 10
-100.0
 20
212.5
 30
0.0
 11
-90.00000000000001
 21
212.5
 31
0.0
  0
TEXT
  5
CC
330
36D
100
AcDbEntity
  8
DIMNSIONS
 62
     7
100
AcDbText
 10
-90.00000000000001
 20
206.15
 30
0.0
 40
13.57367621527778
  1
φ6.5バックカン
 41
0.7
 11
-90.00000000000001
 21
219.7236762152777
 31
0.0
100
AcDbText
 73
     3
  0
LINE
  5
CD
330
36D
100
AcDbEntity
  8
DATA
  6
Continuous
 62
     7
100
AcDbLine
 10
137.5
 20
-152.5
 30
0.0
 11
137.5
 21
152.4999999999999
 31
0.0
  0
CIRCLE
  5
CE
330
36D
100
AcDbEntity
  8
DATA
  6
Continuous
 62
     7
100
AcDbCircle
 10
-75.00000000000001
 20
0.0
 30
0.0
 40
152.4999999999999
  0
CIRCLE
  5
CF
330
36D
100
AcDbEntity
  8
DATA
  6
Continuous
 62
     7
100
AcDbCircle
 10
59.3760447723847
 20
48.90888049557026
 30
0.0
 40
3.24999999999998
  0
CIRCLE
  5
D0
330
36D
100
AcDbEntity
  8
DATA
  6
Continuous
 62
     7
100
AcDbCircle
 10
-123.9088804955709
 20
134.3760447723852
 30
0.0
 40
3.250000000000082
  0
CIRCLE
  5
D1
330
36D
100
AcDbEntity
  8
DATA
  6
Continuous
 62
     7
100
AcDbCircle
 10
-14.56558857107964
 20
129.6020135462415
 30
0.0
 40
3.249999999999805
  0
CIRCLE
  5
D2
330
36D
100
AcDbEntity
  8
DATA
  6
Continuous
 62
     7
100
AcDbCircle
 10
-209.3760447723847
 20
-48.90888049557082
 30
0.0
 40
3.250000000000255
  0
CIRCLE
  5
D3
330
36D
100
AcDbEntity
  8
DATA
  6
Continuous
 62
     7
100
AcDbCircle
 10
-204.6020135462411
 20
60.43441142891997
 30
0.0
 40
3.249999999999901
  0
CIRCLE
  5
D4
330
36D
100
AcDbEntity
  8
DATA
  6
Continuous
 62
     7
100
AcDbCircle
 10
-26.09111950442912
 20
-134.3760447723857
 30
0.0
 40
3.249999999999994
  0
CIRCLE
  5
D5
330
36D
100
AcDbEntity
  8
DATA
  6
Continuous
 62
     7
100
AcDbCircle
 10
54.60201354624086
 20
-60.43441142892021
 30
0.0
 40
3.250000000000285
  0
CIRCLE
  5
D6
330
36D
100
AcDbEntity
  8
DATA
  6
Continuous
 62
     7
100
AcDbCircle
 10
-135.4344114289209
 20
-129.6020135462427
 30
0.0
 40
3.249999999999808
  0
TEXT
  5
D7
330
36D
100
AcDbEntity
  8
DATA
 62
     7
100
AcDbText
 10
350.0
 20
-438.6827925574904
 30
0.0
 40
12.21630859375
  1
Control 227CT
 41
0.7
 11
350.0
 21
-426.4664839637404
 31
0.0
100
AcDbText
 73
     3
  0
LINE
  5
D8
330
36D
100
AcDbEntity
  8
DATA
  6
Continuous
 62
     7
100
AcDbLine
 10
139.5
 20
-100.3996050417172
 30
0.0
 11
139.5
 21
-70.01576323891431
 31
0.0
  0
LINE
  5
D9
330
36D
100
AcDbEntity
  8
DATA
  6
Continuous
 62
     7
100
AcDbLine
 10
139.5
 20
-68.0157632389143
 30
0.0
 11
139.5
 21
-50.63209038836589
 31
0.0
  0
LINE
  5
DA
330
36D
100
AcDbEntity
  8
DATA
  6
Continuous
 62
     7
100
AcDbLine
 10
139.5
 20
-48.6320903883659
 30
0.0
 11
139.5
 21
-10.69183642527406
 31
0.0
  0
LINE
  5
DB
330
36D
100
AcDbEntity
  8
DATA
  6
Continuous
 62
     7
100
AcDbLine
 10
139.5
 20
40.98423676108564
 30
0.0
 11
139.5
 21
58.3679096116341
 31
0.0
  0
LINE
  5
DC
330
36D
100
AcDbEntity
  8
DATA
  6
Continuous
 62
     7
100
AcDbLine
 10
139.5
 20
10.69183642527434
 30
0.0
 11
139.5
 21
38.98423676108564
 31
0.0
  0
LINE
  5
DD
330
36D
100
AcDbEntity
  8
DATA
  6
Continuous
 62
     7
100
AcDbLine
 10
139.5
 20
40.98423676108569
 30
0.0
 11
139.5
 21
58.3679096116341
 31
0.0
  0
LINE
  5
DE
330
36D
100
AcDbEntity
  8
DATA
  6
Continuous
 62
     7
100
AcDbLine
 10
141.5
 20
152.4999999999999
 30
0.0
 11
137.5
 21
152.4999999999999
 31
0.0
  0
LINE
  5
DF
330
36D
100
AcDbEntity
  8
DATA
  6
Continuous
 62
     7
100
AcDbLine
 10
141.5
 20
-152.5
 30
0.0
 11
137.5
 21
-152.5
 31
0.0
  0
LINE
  5
E0
330
36D
100
AcDbEntity
  8
DATA
  6
Continuous
 62
     7
100
AcDbLine
 10
270.5013333266317
 20
-42.59909228906985
 30
0.0
 11
270.5013333266317
 21
-7.099092289069858
 31
0.0
  0
LINE
  5
E1
330
36D
100
AcDbEntity
  8
DATA
  6
Continuous
 62
     7
100
AcDbLine
 10
270.5013333266317
 20
6.900907710930141
 30
0.0
 11
270.5013333266317
 21
42.40090771093014
 31
0.0
  0
LINE
  5
E2
330
36D
100
AcDbEntity
  8
DATA
  6
Continuous
 62
     7
100
AcDbLine
 10
270.5013333266317
 20
42.40090771093014
 30
0.0
 11
257.5013333266317
 21
42.40090771093014
 31
0.0
  0
LINE
  5
E3
330
36D
100
AcDbEntity
  8
DATA
  6
Continuous
 62
     7
100
AcDbLine
 10
270.5013333266317
 20
-42.59909228906985
 30
0.0
 11
257.5013333266317
 21
-42.59909228906985
 31
0.0
  0
LINE
  5
E4
330
36D
100
AcDbEntity
  8
DATA
  6
Continuous
 62
     7
100
AcDbLine
 10
241.5013333266319
 20
6.900907710930141
 30
0.0
 11
281.5013333266318
 21
6.900907710930141
 31
0.0
  0
LINE
  5
E5
330
36D
100
AcDbEntity
  8
DATA
  6
Continuous
 62
     7
100
AcDbLine
 10
241.5013333266319
 20
-7.099092289069858
 30
0.0
 11
281.5013333266318
 21
-7.099092289069858
 31
0.0
  0
LINE
  5
E6
330
36D
100
AcDbEntity
  8
DATA
  6
Continuous
 62
     7
100
AcDbLine
 10
240.5013333266318
 20
-6.099092289069858
 30
0.0
 11
281.5013333266318
 21
-6.099092289069858
 31
0.0
  0
LINE
  5
E7
330
36D
100
AcDbEntity
  8
DATA
  6
Continuous
 62
     7
100
AcDbLine
 10
240.5013333266318
 20
5.900907710930141
 30
0.0
 11
281.5013333266318
 21
5.900907710930141
 31
0.0
  0
LINE
  5
E8
330
36D
100
AcDbEntity
  8
DATA
  6
Continuous
 62
     7
100
AcDbLine
 10
236.5213333266318
 20
6.900907710930141
 30
0.0
 11
236.5213333266318
 21
-7.099092289069858
 31
0.0
  0
LINE
  5
E9
330
36D
100
AcDbEntity
  8
DATA
  6
Continuous
 62
     7
100
AcDbLine
 10
277.5013333266319
 20
5.900907710930141
 30
0.0
 11
277.5013333266319
 21
-6.099092289069858
 31
0.0
  0
LINE
  5
EA
330
36D
100
AcDbEntity
  8
DATA
  6
Continuous
 62
     7
100
AcDbLine
 10
281.5013333266318
 20
6.900907710930141
 30
0.0
 11
281.5013333266318
 21
5.900907710930141
 31
0.0
  0
LINE
  5
EB
330
36D
100
AcDbEntity
  8
DATA
  6
Continuous
 62
     7
100
AcDbLine
 10
281.5013333266318
 20
-6.099092289069858
 30
0.0
 11
281.5013333266318
 21
-7.099092289069858
 31
0.0
  0
LINE
  5
EC
330
36D
100
AcDbEntity
  8
DATA
  6
Continuous
 62
     7
100
AcDbLine
 10
239.0213333266318
 20
1.800907710930175
 30
0.0
 11
239.0213333266318
 21
-1.999092289069835
 31
0.0
  0
LINE
  5
ED
330
36D
100
AcDbEntity
  8
DATA
  6
Continuous
 62
     7
100
AcDbLine
 10
237.0213333266318
 20
3.800907710930176
 30
0.0
 11
236.5213333266318
 21
3.800907710930176
 31
0.0
  0
LINE
  5
EE
330
36D
100
AcDbEntity
  8
DATA
  6
Continuous
 62
     7
100
AcDbLine
 10
237.0213333266318
 20
-3.999092289069836
 30
0.0
 11
236.5213333266318
 21
-3.999092289069836
 31
0.0
  0
ARC
  5
EF
330
36D
100
AcDbEntity
  8
DATA
  6
Continuous
 62
     7
100
AcDbCircle
 10
237.0213333266318
 20
1.800907710930175
 30
0.0
 40
2.0
100
AcDbArc
 50
0.0
 51
90.0
  0
ARC
  5
F0
330
36D
100
AcDbEntity
  8
DATA
  6
Continuous
 62
     7
100
AcDbCircle
 10
237.0213333266318
 20
-1.999092289069835
 30
0.0
 40
2.0
100
AcDbArc
 50
270.0
 51
0.0
  0
LINE
  5
F1
330
36D
100
AcDbEntity
  8
DATA
  6
Continuous
 62
     7
100
AcDbLine
 10
237.0213333266318
 20
3.800907710930176
 30
0.0
 11
237.0213333266318
 21
-3.999092289069836
 31
0.0
  0
ARC
  5
F2
330
36D
100
AcDbEntity
  8
DATA
  6
Continuous
 62
     7
100
AcDbCircle
 10
-26.09111950442946
 20
-134.3760447723855
 30
0.0
 40
9.499999999999928
100
AcDbArc
 50
22.00375735902705
 51
197.9962426409722
  0
ARC
  5
F3
330
36D
100
AcDbEntity
  8
DATA
  6
Continuous
 62
     7
100
AcDbCircle
 10
54.60201354624256
 20
-60.43441142892066
 30
0.0
 40
9.499999999999817
100
AcDbArc
 50
67.00375735902561
 51
242.9962426410795
  0
ARC
  5
F4
330
36D
100
AcDbEntity
  8
DATA
  6
Continuous
 62
     7
100
AcDbCircle
 10
-75.00000000000001
 20
0.0
 30
0.0
 40
137.4999999999998
100
AcDbArc
 50
29.09005842698431
 51
55.90994157301387
  0
ARC
  5
F5
330
36D
100
AcDbEntity
  8
DATA
  6
Continuous
 62
     7
100
AcDbCircle
 10
-75.00000000000001
 20
0.0
 30
0.0
 40
116.5
100
AcDbArc
 50
29.00801230536424
 51
55.99198769463407
  0
ARC
  5
F6
330
36D
100
AcDbEntity
  8
DATA
  6
Continuous
 62
     7
100
AcDbCircle
 10
35.10593103062387
 20
61.25915402517006
 30
0.0
 40
11.49999999999982
100
AcDbArc
 50
298.8625683033251
 51
29.09005842698537
  0
ARC
  5
F7
330
36D
100
AcDbEntity
  8
DATA
  6
Continuous
 62
     7
100
AcDbCircle
 10
-4.377591350639945
 20
104.347857652003
 30
0.0
 40
11.5000000000002
100
AcDbArc
 50
55.90994157301643
 51
146.1374316966614
  0
ARC
  5
F8
330
36D
100
AcDbEntity
  8
DATA
  6
Continuous
 62
     7
100
AcDbCircle
 10
36.9426434909054
 20
62.07128618183913
 30
0.0
 40
11.49999999999887
100
AcDbArc
 50
209.0080123053601
 51
288.8442198879363
  0
ARC
  5
F9
330
36D
100
AcDbEntity
  8
DATA
  6
Continuous
 62
     7
100
AcDbCircle
 10
-3.408469563322356
 20
106.1067988855326
 30
0.0
 40
11.50000000000272
100
AcDbArc
 50
156.1557801120685
 51
235.9919876946211
  0
LINE
  5
FA
330
36D
100
AcDbEntity
  8
DATA
  6
Continuous
 62
     7
100
AcDbLine
 10
58.31338579016765
 20
-51.68937191688764
 30
0.0
 11
67.0634422551149
 21
-55.40287334270732
 31
0.0
  0
LINE
  5
FB
330
36D
100
AcDbEntity
  8
DATA
  6
Continuous
 62
     7
100
AcDbLine
 10
50.28854871653867
 20
-68.89869055728782
 30
0.0
 11
58.59683179620389
 21
-73.50547167517793
 31
0.0
  0
LINE
  5
FC
330
36D
100
AcDbEntity
  8
DATA
  6
Continuous
 62
     7
100
AcDbLine
 10
-17.27599340741575
 20
-130.8326746545407
 30
0.0
 11
-13.41085706527043
 21
-139.5108496387533
 31
0.0
  0
LINE
  5
FD
330
36D
100
AcDbEntity
  8
DATA
  6
Continuous
 62
     7
100
AcDbLine
 10
-35.12634890545202
 20
-137.3111137103994
 30
0.0
 11
-32.38590548298977
 21
-146.4250284223821
 31
0.0
  0
ARC
  5
FE
330
36D
100
AcDbEntity
  8
DATA
  6
Continuous
 62
     7
100
AcDbCircle
 10
-135.4344114289209
 20
-129.6020135462427
 30
0.0
 40
9.500000000000291
100
AcDbArc
 50
337.0037573590346
 51
152.9962426414496
  0
ARC
  5
FF
330
36D
100
AcDbEntity
  8
DATA
  6
Continuous
 62
     7
100
AcDbCircle
 10
-209.3760447723849
 20
-48.90888049557048
 30
0.0
 40
9.499999999999863
100
AcDbArc
 50
292.0037573581412
 51
107.9962426412712
  0
ARC
  5
100
330
36D
100
AcDbEntity
  8
DATA
  6
Continuous
 62
     7
100
AcDbCircle
 10
-204.6020135462412
 20
60.43441142891963
 30
0.0
 40
9.500000000000152
100
AcDbArc
 50
247.0037573590235
 51
62.99624264123389
  0
ARC
  5
101
330
36D
100
AcDbEntity
  8
DATA
  6
Continuous
 62
     7
100
AcDbCircle
 10
-123.9088804955709
 20
134.3760447723852
 30
0.0
 40
9.500000000000008
100
AcDbArc
 50
202.0037573585506
 51
17.99624264097267
  0
ARC
  5
102
330
36D
100
AcDbEntity
  8
DATA
  6
Continuous
 62
     7
100
AcDbCircle
 10
-14.56558857107976
 20
129.6020135462415
 30
0.0
 40
9.499999999999744
100
AcDbArc
 50
157.0037573590284
 51
332.9962426426929
  0
ARC
  5
103
330
36D
100
AcDbEntity
  8
DATA
  6
Continuous
 62
     7
100
AcDbCircle
 10
59.37604477238487
 20
48.90888049557048
 30
0.0
 40
9.499999999999948
100
AcDbArc
 50
112.0037573590236
 51
287.9962426410943
  0
LINE
  5
104
330
36D
100
AcDbEntity
  8
DATA
  6
Continuous
 62
     7
100
AcDbLine
 10
-126.6893719168869
 20
-133.3133857901666
 30
0.0
 11
-130.0927041788058
 21
-142.1828462875685
 31
0.0
  0
LINE
  5
105
330
36D
100
AcDbEntity
  8
DATA
  6
Continuous
 62
     7
100
AcDbLine
 10
-143.8986905573156
 20
-125.2885487165936
 30
0.0
 11
-148.5054716752063
 21
-133.5968317962588
 31
0.0
  0
LINE
  5
106
330
36D
100
AcDbEntity
  8
DATA
  6
Continuous
 62
     7
100
AcDbLine
 10
-212.311113710446
 20
-39.87365109456312
 30
0.0
 11
-221.4434431839969
 21
-42.49100823230929
 31
0.0
  0
LINE
  5
107
330
36D
100
AcDbEntity
  8
DATA
  6
Continuous
 62
     7
100
AcDbLine
 10
-205.8167045130049
 20
-57.71689371751529
 30
0.0
 11
-214.4948794972187
 21
-61.582030059661
 31
0.0
  0
LINE
  5
108
330
36D
100
AcDbEntity
  8
DATA
  6
Continuous
 62
     7
100
AcDbLine
 10
-200.2885487165603
 20
68.89869055729814
 30
0.0
 11
-208.5968317962253
 21
73.50547167518867
 31
0.0
  0
LINE
  5
109
330
36D
100
AcDbEntity
  8
DATA
  6
Continuous
 62
     7
100
AcDbLine
 10
-208.3133857901668
 20
51.68937191688645
 30
0.0
 11
-217.1828462875692
 21
55.09270417880543
 31
0.0
  0
LINE
  5
10A
330
36D
100
AcDbEntity
  8
DATA
  6
Continuous
 62
     7
100
AcDbLine
 10
-114.8736510945482
 20
137.3111137103992
 30
0.0
 11
-117.4910082322943
 21
146.4434431839506
 31
0.0
  0
LINE
  5
10B
330
36D
100
AcDbEntity
  8
DATA
  6
Continuous
 62
     7
100
AcDbLine
 10
-132.7168937174904
 20
130.8167045129422
 30
0.0
 11
-136.5820300596356
 21
139.4948794971545
 31
0.0
  0
LINE
  5
10C
330
36D
100
AcDbEntity
  8
DATA
  6
Continuous
 62
     7
100
AcDbLine
 10
-6.101309442591187
 20
125.288548716776
 30
0.0
 11
-1.49452832470105
 21
133.5968317964403
 31
0.0
  0
LINE
  5
10D
330
36D
100
AcDbEntity
  8
DATA
  6
Continuous
 62
     7
100
AcDbLine
 10
-23.3106280831129
 20
133.3133857901661
 30
0.0
 11
-19.90729582119413
 21
142.1828462875683
 31
0.0
  0
LINE
  5
10E
330
36D
100
AcDbEntity
  8
DATA
  6
Continuous
 62
     7
100
AcDbLine
 10
62.31111371041804
 20
39.87365109455396
 30
0.0
 11
71.44344318396905
 21
42.49100823230003
 31
0.0
  0
LINE
  5
10F
330
36D
100
AcDbEntity
  8
DATA
  6
Continuous
 62
     7
100
AcDbLine
 10
55.81670451286925
 20
57.71689371746054
 30
0.0
 11
64.49487949708258
 21
61.58203005960615
 31
0.0
  0
LINE
  5
110
330
36D
100
AcDbEntity
  8
DATA
  6
Continuous
 62
     7
100
AcDbLine
 10
137.5
 20
39.82953622270645
 30
0.0
 11
139.5
 21
40.98423676108569
 31
0.0
  0
LINE
  5
111
330
36D
100
AcDbEntity
  8
DATA
  6
Continuous
 62
     7
100
AcDbLine
 10
137.5
 20
59.52261015001335
 30
0.0
 11
139.5
 21
58.3679096116341
 31
0.0
  0
LINE
  5
112
330
36D
100
AcDbEntity
  8
DATA
  6
Continuous
 62
     7
100
AcDbLine
 10
141.5
 20
59.21320907325486
 30
0.0
 11
141.5
 21
40.13893729946494
 31
0.0
  0
LINE
  5
113
330
36D
100
AcDbEntity
  8
DATA
  6
Continuous
 62
     7
100
AcDbLine
 10
141.5
 20
-135.5000057037524
 30
0.0
 11
141.5
 21
-152.5
 31
0.0
  0
LINE
  5
114
330
36D
100
AcDbEntity
  8
DATA
  6
Continuous
 62
     7
100
AcDbLine
 10
141.5
 20
-135.5000057037524
 30
0.0
 11
139.5
 21
-133.5000057037524
 31
0.0
  0
LINE
  5
115
330
36D
100
AcDbEntity
  8
DATA
  6
Continuous
 62
     7
100
AcDbLine
 10
139.5
 20
60.3679096116341
 30
0.0
 11
141.5
 21
59.21320907325486
 31
0.0
  0
LINE
  5
116
330
36D
100
AcDbEntity
  8
DATA
  6
Continuous
 62
     7
100
AcDbLine
 10
139.5
 20
38.9842367610857
 30
0.0
 11
141.5
 21
40.13893729946494
 31
0.0
  0
LINE
  5
117
330
36D
100
AcDbEntity
  8
DATA
  6
Continuous
 62
     7
100
AcDbLine
 10
141.5
 20
135.4999999999991
 30
0.0
 11
141.5
 21
152.4999999999999
 31
0.0
  0
LINE
  5
118
330
36D
100
AcDbEntity
  8
DATA
  6
Continuous
 62
     7
100
AcDbLine
 10
141.5
 20
135.4999999999991
 30
0.0
 11
139.5
 21
133.4999999999991
 31
0.0
  0
CIRCLE
  5
119
330
36D
100
AcDbEntity
  8
DATA
  6
Continuous
 62
     7
100
AcDbCircle
 10
-75.00000000000001
 20
0.0
 30
0.0
 40
113.4999999999998
  0
ARC
  5
11A
330
36D
100
AcDbEntity
  8
DATA
  6
Continuous
 62
     7
100
AcDbCircle
 10
-75.00000000000001
 20
0.0000000000001705
 30
0.0
 40
137.5
100
AcDbArc
 50
119.0900584269844
 51
145.9099415730139
  0
ARC
  5
11B
330
36D
100
AcDbEntity
  8
DATA
  6
Continuous
 62
     7
100
AcDbCircle
 10
-75.00000000000001
 20
0.0000000000001705
 30
0.0
 40
116.4999999999999
100
AcDbArc
 50
119.0080123053643
 51
145.9919876946341
  0
ARC
  5
11C
330
36D
100
AcDbEntity
  8
DATA
  6
Continuous
 62
     7
100
AcDbCircle
 10
-137.0712861818392
 20
111.9426434909056
 30
0.0
 40
11.49999999999905
100
AcDbArc
 50
299.0080123053593
 51
18.84421988793639
  0
ARC
  5
11D
330
36D
100
AcDbEntity
  8
DATA
  6
Continuous
 62
     7
100
AcDbCircle
 10
-136.2591540251703
 20
110.1059310306238
 30
0.0
 40
11.49999999999994
100
AcDbArc
 50
28.86256830332737
 51
119.0900584269844
  0
ARC
  5
11E
330
36D
100
AcDbEntity
  8
DATA
  6
Continuous
 62
     7
100
AcDbCircle
 10
-181.1067988855328
 20
71.5915304366777
 30
0.0
 40
11.50000000000253
100
AcDbArc
 50
246.1557801120719
 51
325.9919876946216
  0
ARC
  5
11F
330
36D
100
AcDbEntity
  8
DATA
  6
Continuous
 62
     7
100
AcDbCircle
 10
-179.347857652003
 20
70.62240864935994
 30
0.0
 40
11.50000000000059
100
AcDbArc
 50
145.9099415730161
 51
236.137431696661
  0
LWPOLYLINE
  5
120
330
36D
100
AcDbEntity
  8
DATA
  6
Continuous
 62
     7
100
AcDbPolyline
 90
        4
 70
     1
 43
0.0
 10
384.4891387557546
 20
62.5
 10
514.4891387557545
 20
62.5
 10
514.4891387557545
 20
-17.5
 10
384.4891387557546
 20
-17.5
  0
LINE
  5
127
330
36D
100
AcDbEntity
  8
DATA
  6
Continuous
 62
     7
100
AcDbLine
 10
406.9891387557545
 20
30.0
 30
0.0
 11
391.9891387557545
 21
30.0
 31
0.0
  0
LINE
  5
128
330
36D
100
AcDbEntity
  8
DATA
  6
Continuous
 62
     7
100
AcDbLine
 10
391.9891387557545
 20
45.0
 30
0.0
 11
406.9891387557545
 21
45.0
 31
0.0
  0
LWPOLYLINE
  5
129
330
36D
100
AcDbEntity
  8
DATA
  6
Continuous
 62
     7
100
AcDbPolyline
 90
        4
 70
     1
 43
0.0
 10
391.9891387557545
 20
50.0
 10
406.9891387557545
 20
50.0
 10
406.9891387557545
 20
17.5
 10
391.9891387557545
 20
17.5
  0
LINE
  5
130
330
36D
100
AcDbEntity
  8
DATA
  6
Continuous
 62
     7
100
AcDbLine
 10
431.9891387557545
 20
30.0
 30
0.0
 11
416.9891387557545
 21
30.0
 31
0.0
  0
LINE
  5
131
330
36D
100
AcDbEntity
  8
DATA
  6
Continuous
 62
     7
100
AcDbLine
 10
416.9891387557545
 20
45.0
 30
0.0
 11
431.9891387557545
 21
45.0
 31
0.0
  0
LWPOLYLINE
  5
132
330
36D
100
AcDbEntity
  8
DATA
  6
Continuous
 62
     7
100
AcDbPolyline
 90
        4
 70
     1
 43
0.0
 10
416.9891387557545
 20
50.0
 10
431.9891387557545
 20
50.0
 10
431.9891387557545
 20
17.5
 10
416.9891387557545
 20
17.5
  0
LINE
  5
139
330
36D
100
AcDbEntity
  8
DATA
  6
Continuous
 62
     7
100
AcDbLine
 10
456.9891387557545
 20
30.0
 30
0.0
 11
441.9891387557545
 21
30.0
 31
0.0
  0
LINE
  5
13A
330
36D
100
AcDbEntity
  8
DATA
  6
Continuous
 62
     7
100
AcDbLine
 10
441.9891387557545
 20
45.0
 30
0.0
 11
456.9891387557545
 21
45.0
 31
0.0
  0
LWPOLYLINE
  5
13B
330
36D
100
AcDbEntity
  8
DATA
  6
Continuous
 62
     7
100
AcDbPolyline
 90
        4
 70
     1
 43
0.0
 10
441.9891387557545
 20
50.0
 10
456.9891387557545
 20
50.0
 10
456.9891387557545
 20
17.5
 10
441.9891387557545
 20
17.5
  0
LINE
  5
142
330
36D
100
AcDbEntity
  8
DATA
  6
Continuous
 62
     7
100
AcDbLine
 10
481.9891387557545
 20
30.0
 30
0.0
 11
466.9891387557545
 21
30.0
 31
0.0
  0
LINE
  5
143
330
36D
100
AcDbEntity
  8
DATA
  6
Continuous
 62
     7
100
AcDbLine
 10
466.9891387557545
 20
45.0
 30
0.0
 11
481.9891387557545
 21
45.0
 31
0.0
  0
LWPOLYLINE
  5
144
330
36D
100
AcDbEntity
  8
DATA
  6
Continuous
 62
     7
100
AcDbPolyline
 90
        4
 70
     1
 43
0.0
 10
466.9891387557545
 20
50.0
 10
481.9891387557545
 20
50.0
 10
481.9891387557545
 20
17.5
 10
466.9891387557545
 20
17.5
  0
TEXT
  5
14B
330
36D
100
AcDbEntity
  8
DATA
 62
     7
100
AcDbText
 10
420.0794165335322
 20
-6.349999999999291
 30
0.0
 40
13.57367621527778
  1
B
 41
0.7
 11
420.0794165335322
 21
7.223676215278486
 31
0.0
100
AcDbText
 73
     3
  0
TEXT
  5
14C
330
36D
100
AcDbEntity
  8
DATA
 62
     7
100
AcDbText
 10
395.0794165335322
 20
-6.349999999999291
 30
0.0
 40
13.57367621527778
  1
A
 41
0.7
 11
395.0794165335322
 21
7.223676215278486
 31
0.0
100
AcDbText
 73
     3
  0
TEXT
  5
14D
330
36D
100
AcDbEntity
  8
DATA
 62
     7
100
AcDbText
 10
445.0794165335322
 20
-6.349999999999291
 30
0.0
 40
13.57367621527778
  1
C
 41
0.7
 11
445.0794165335322
 21
7.223676215278486
 31
0.0
100
AcDbText
 73
     3
  0
TEXT
  5
14E
330
36D
100
AcDbEntity
  8
DATA
 62
     7
100
AcDbText
 10
470.0794165335322
 20
-6.349999999999291
 30
0.0
 40
13.57367621527778
  1
D
 41
0.7
 11
470.0794165335322
 21
7.223676215278486
 31
0.0
100
AcDbText
 73
     3
  0
LINE
  5
14F
330
36D
100
AcDbEntity
  8
DATA
  6
Continuous
 62
     7
100
AcDbLine
 10
400.5108612442454
 20
-50.0
 30
0.0
 11
499.4891387557545
 21
-50.0
 31
0.0
  0
TEXT
  5
150
330
36D
100
AcDbEntity
  8
DATA
 62
     7
100
AcDbText
 10
474.2708333333334
 20
131.15
 30
0.0
 40
13.57367621527778
  1
60W
 41
0.7
 11
474.2708333333334
 21
144.7236762152778
 31
0.0
100
AcDbText
 73
     3
  0
LINE
  5
151
330
36D
100
AcDbEntity
  8
DATA
  6
Continuous
 62
     7
100
AcDbLine
 10
387.5
 20
250.0
 30
0.0
 11
512.5
 21
250.0
 31
0.0
  0
LINE
  5
152
330
36D
100
AcDbEntity
  8
DATA
  6
Continuous
 62
     7
100
AcDbLine
 10
387.5
 20
225.0
 30
0.0
 11
512.5
 21
225.0
 31
0.0
  0
TEXT
  5
153
330
36D
100
AcDbEntity
  8
DATA
 62
     7
100
AcDbText
 10
424.2708333333332
 20
231.15
 30
0.0
 40
13.57367621527778
  1
70V
 41
0.7
 11
424.2708333333332
 21
244.7236762152778
 31
0.0
100
AcDbText
 73
     3
  0
LINE
  5
154
330
36D
100
AcDbEntity
  8
DATA
  6
Continuous
 62
     7
100
AcDbLine
 10
387.5
 20
200.0
 30
0.0
 11
512.5
 21
200.0
 31
0.0
  0
TEXT
  5
155
330
36D
100
AcDbEntity
  8
DATA
 62
     7
100
AcDbText
 10
395.5902777777778
 20
206.15
 30
0.0
 40
13.57367621527778
  1
A
 41
0.7
 11
395.5902777777778
 21
219.7236762152778
 31
0.0
100
AcDbText
 73
     3
  0
LINE
  5
156
330
36D
100
AcDbEntity
  8
DATA
  6
Continuous
 62
     7
100
AcDbLine
 10
412.5
 20
250.0
 30
0.0
 11
412.5
 21
100.0
 31
0.0
  0
LINE
  5
157
330
36D
100
AcDbEntity
  8
DATA
  6
Continuous
 62
     7
100
AcDbLine
 10
462.5
 20
250.0
 30
0.0
 11
462.5
 21
100.0
 31
0.0
  0
LINE
  5
158
330
36D
100
AcDbEntity
  8
DATA
  6
Continuous
 62
     7
100
AcDbLine
 10
512.5
 20
250.0
 30
0.0
 11
512.5
 21
100.0
 31
0.0
  0
TEXT
  5
159
330
36D
100
AcDbEntity
  8
DATA
 62
     7
100
AcDbText
 10
469.8611111111111
 20
231.15
 30
0.0
 40
13.57367621527778
  1
100V
 41
0.7
 11
469.8611111111111
 21
244.7236762152778
 31
0.0
100
AcDbText
 73
     3
  0
TEXT
  5
15A
330
36D
100
AcDbEntity
  8
DATA
 62
     7
100
AcDbText
 10
419.8611111111111
 20
181.15
 30
0.0
 40
13.57367621527778
  1
7.5W
 41
0.7
 11
419.8611111111111
 21
194.7236762152778
 31
0.0
100
AcDbText
 73
     3
  0
TEXT
  5
15B
330
36D
100
AcDbEntity
  8
DATA
 62
     7
100
AcDbText
 10
424.2708333333333
 20
206.15
 30
0.0
 40
13.57367621527778
  1
COM
 41
0.7
 11
424.2708333333333
 21
219.7236762152778
 31
0.0
100
AcDbText
 73
     3
  0
TEXT
  5
15C
330
36D
100
AcDbEntity
  8
DATA
 62
     7
100
AcDbText
 10
474.2708333333332
 20
206.15
 30
0.0
 40
13.57367621527778
  1
COM
 41
0.7
 11
474.2708333333332
 21
219.7236762152778
 31
0.0
100
AcDbText
 73
     3
  0
TEXT
  5
15D
330
36D
100
AcDbEntity
  8
DATA
 62
     7
100
AcDbText
 10
395.5902777777778
 20
181.15
 30
0.0
 40
13.57367621527778
  1
B
 41
0.7
 11
395.5902777777778
 21
194.7236762152778
 31
0.0
100
AcDbText
 73
     3
  0
TEXT
  5
15E
330
36D
100
AcDbEntity
  8
DATA
 62
     7
100
AcDbText
 10
474.2708333333334
 20
181.15
 30
0.0
 40
13.57367621527778
  1
15W
 41
0.7
 11
474.2708333333334
 21
194.7236762152778
 31
0.0
100
AcDbText
 73
     3
  0
TEXT
  5
15F
330
36D
100
AcDbEntity
  8
DATA
 62
     7
100
AcDbText
 10
395.5902777777778
 20
156.15
 30
0.0
 40
13.57367621527778
  1
C
 41
0.7
 11
395.5902777777778
 21
169.7236762152778
 31
0.0
100
AcDbText
 73
     3
  0
LINE
  5
160
330
36D
100
AcDbEntity
  8
DATA
  6
Continuous
 62
     7
100
AcDbLine
 10
387.5
 20
250.0
 30
0.0
 11
387.5
 21
100.0
 31
0.0
  0
LINE
  5
161
330
36D
100
AcDbEntity
  8
DATA
  6
Continuous
 62
     7
100
AcDbLine
 10
387.5
 20
175.0
 30
0.0
 11
512.5
 21
175.0
 31
0.0
  0
TEXT
  5
162
330
36D
100
AcDbEntity
  8
DATA
 62
     7
100
AcDbText
 10
424.2708333333333
 20
156.15
 30
0.0
 40
13.57367621527778
  1
15W
 41
0.7
 11
424.2708333333333
 21
169.7236762152778
 31
0.0
100
AcDbText
 73
     3
  0
TEXT
  5
163
330
36D
100
AcDbEntity
  8
DATA
 62
     7
100
AcDbText
 10
474.4812238679991
 20
156.2509875838966
 30
0.0
 40
13.35780648841534
  1
30W
 41
0.7
 11
474.4812238679991
 21
169.608794072312
 31
0.0
100
AcDbText
 73
     3
  0
TEXT
  5
164
330
36D
100
AcDbEntity
  8
DATA
 62
     7
100
AcDbText
 10
424.4812238679991
 20
131.2509875838966
 30
0.0
 40
13.35780648841534
  1
30W
 41
0.7
 11
424.4812238679991
 21
144.608794072312
 31
0.0
100
AcDbText
 73
     3
  0
TEXT
  5
165
330
36D
100
AcDbEntity
  8
DATA
 62
     7
100
AcDbText
 10
395.5902777777778
 20
131.15
 30
0.0
 40
13.57367621527778
  1
D
 41
0.7
 11
395.5902777777778
 21
144.7236762152778
 31
0.0
100
AcDbText
 73
     3
  0
TEXT
  5
166
330
36D
100
AcDbEntity
  8
DATA
 62
     7
100
AcDbText
 10
395.5902777777778
 20
106.15
 30
0.0
 40
13.57367621527778
  1
E
 41
0.7
 11
395.5902777777778
 21
119.7236762152778
 31
0.0
100
AcDbText
 73
     3
  0
LINE
  5
167
330
36D
100
AcDbEntity
  8
DATA
  6
Continuous
 62
     7
100
AcDbLine
 10
387.5
 20
150.0
 30
0.0
 11
512.5
 21
150.0
 31
0.0
  0
LINE
  5
168
330
36D
100
AcDbEntity
  8
DATA
  6
Continuous
 62
     7
100
AcDbLine
 10
387.5
 20
125.0
 30
0.0
 11
512.5
 21
125.0
 31
0.0
  0
LINE
  5
169
330
36D
100
AcDbEntity
  8
DATA
  6
Continuous
 62
     7
100
AcDbLine
 10
387.5
 20
100.0
 30
0.0
 11
512.5
 21
100.0
 31
0.0
  0
TEXT
  5
16A
330
36D
100
AcDbEntity
  8
DATA
 62
     7
100
AcDbText
 10
424.2708333333333
 20
106.15
 30
0.0
 40
13.57367621527778
  1
60W
 41
0.7
 11
424.2708333333333
 21
119.7236762152778
 31
0.0
100
AcDbText
 73
     3
  0
TEXT
  5
16B
330
36D
100
AcDbEntity
  8
DATA
 62
     7
100
AcDbText
 10
474.2708333333334
 20
106.15
 30
0.0
 40
13.57367621527778
  1
N/C
 41
0.7
 11
474.2708333333334
 21
119.7236762152778
 31
0.0
100
AcDbText
 73
     3
  0
LINE
  5
16C
330
36D
100
AcDbEntity
  8
DATA
  6
Continuous
 62
     7
100
AcDbLine
 10
506.9891387557545
 20
30.0
 30
0.0
 11
491.9891387557545
 21
30.0
 31
0.0
  0
LINE
  5
16D
330
36D
100
AcDbEntity
  8
DATA
  6
Continuous
 62
     7
100
AcDbLine
 10
491.9891387557545
 20
45.0
 30
0.0
 11
506.9891387557545
 21
45.0
 31
0.0
  0
LWPOLYLINE
  5
16E
330
36D
100
AcDbEntity
  8
DATA
  6
Continuous
 62
     7
100
AcDbPolyline
 90
        4
 70
     1
 43
0.0
 10
491.9891387557545
 20
50.0
 10
506.9891387557545
 20
50.0
 10
506.9891387557545
 20
17.5
 10
491.9891387557545
 20
17.5
  0
TEXT
  5
175
330
36D
100
AcDbEntity
  8
DATA
 62
     7
100
AcDbText
 10
495.0794165335322
 20
-6.349999999999291
 30
0.0
 40
13.57367621527778
  1
E
 41
0.7
 11
495.0794165335322
 21
7.223676215278486
 31
0.0
100
AcDbText
 73
     3
  0
TEXT
  5
176
330
36D
100
AcDbEntity
  8
DATA
 62
     7
100
AcDbText
 10
406.3968990065766
 20
-41.97227100983997
 30
0.0
 40
13.57367621527778
  1
端子拡大図
 41
0.7
 11
406.3968990065766
 21
-28.3985947945622
 31
0.0
100
AcDbText
 73
     3
  0
CIRCLE
  5
177
330
36D
100
AcDbEntity
  8
DATA
  6
Continuous
 62
     7
100
AcDbCircle
 10
-75.00000000000001
 20
0.0000000000001705
 30
0.0
 40
72.99999999999973
  0
CIRCLE
  5
178
330
36D
100
AcDbEntity
  8
DATA
  6
Continuous
 62
     7
100
AcDbCircle
 10
-75.00000000000001
 20
0.0
 30
0.0
 40
70.0000000000001
  0
CIRCLE
  5
179
330
36D
100
AcDbEntity
  8
DATA
  6
Continuous
 62
     7
100
AcDbCircle
 10
-75.00000000000001
 20
0.0
 30
0.0
 40
59.99999999999992
  0
CIRCLE
  5
17A
330
36D
100
AcDbEntity
  8
DATA
  6
Continuous
 62
     7
100
AcDbCircle
 10
-55.20034304965714
 20
73.89332571111364
 30
0.0
 40
3.499999999999982
  0
LWPOLYLINE
  5
17B
330
36D
100
AcDbEntity
  8
DATA
  6
Continuous
 62
     7
100
AcDbPolyline
 90
        4
 70
     0
 43
0.0
 10
-55.81271548535291
 20
73.53977232052045
 10
-57.50308568135882
 20
73.9927056494497
 10
-57.24426663625628
 20
74.95863147573901
 10
-55.55389644025037
 20
74.50569814680942
  0
LWPOLYLINE
  5
182
330
36D
100
AcDbEntity
  8
DATA
  6
Continuous
 62
     7
100
AcDbPolyline
 90
        4
 70
     0
 43
0.0
 10
-54.58797061396138
 20
74.24687910170702
 10
-52.89760041795536
 20
73.79394577277754
 10
-53.15641946305778
 20
72.82801994648846
 10
-54.84678965906393
 20
73.28095327541792
  0
LWPOLYLINE
  5
189
330
36D
100
AcDbEntity
  8
DATA
  6
Continuous
 62
     7
100
AcDbPolyline
 90
        4
 70
     0
 43
0.0
 10
-55.55389644025037
 20
74.50569814680942
 10
-55.10096311132089
 20
76.19606834281545
 10
-54.13503728503179
 20
75.93724929771298
 10
-54.58797061396138
 20
74.24687910170702
  0
LWPOLYLINE
  5
190
330
36D
100
AcDbEntity
  8
DATA
  6
Continuous
 62
     7
100
AcDbPolyline
 90
        4
 70
     0
 43
0.0
 10
-54.84678965906393
 20
73.28095327541792
 10
-55.29972298799318
 20
71.59058307941212
 10
-56.26564881428227
 20
71.84940212451465
 10
-55.81271548535291
 20
73.53977232052045
  0
CIRCLE
  5
197
330
36D
100
AcDbEntity
  8
DATA
  6
Continuous
 62
     7
100
AcDbCircle
 10
-129.0936687607713
 20
54.09366876077137
 30
0.0
 40
3.500000000000037
  0
LWPOLYLINE
  5
198
330
36D
100
AcDbEntity
  8
DATA
  6
Continuous
 62
     7
100
AcDbPolyline
 90
        4
 70
     0
 43
0.0
 10
-129.7060411964671
 20
53.740115370178
 10
-131.396411392473
 20
54.19304869910746
 10
-131.1375923473706
 20
55.15897452539657
 10
-129.4472221513646
 20
54.70604119646725
  0
LWPOLYLINE
  5
19F
330
36D
100
AcDbEntity
  8
DATA
  6
Continuous
 62
     7
100
AcDbPolyline
 90
        4
 70
     0
 43
0.0
 10
-128.4812963250756
 20
54.4472221513647
 10
-126.7909261290697
 20
53.9942888224353
 10
-127.0497451741722
 20
53.02836299614615
 10
-128.740115370178
 20
53.48129632507568
  0
LWPOLYLINE
  5
1A6
330
36D
100
AcDbEntity
  8
DATA
  6
Continuous
 62
     7
100
AcDbPolyline
 90
        4
 70
     0
 43
0.0
 10
-129.4472221513646
 20
54.70604119646725
 10
-128.9942888224352
 20
56.3964113924731
 10
-128.0283629961461
 20
56.13759234737056
 10
-128.4812963250756
 20
54.4472221513647
  0
LWPOLYLINE
  5
1AD
330
36D
100
AcDbEntity
  8
DATA
  6
Continuous
 62
     7
100
AcDbPolyline
 90
        4
 70
     0
 43
0.0
 10
-128.740115370178
 20
53.48129632507568
 10
-129.1930486991074
 20
51.79092612906976
 10
-130.1589745253965
 20
52.04974517417242
 10
-129.7060411964671
 20
53.740115370178
  0
CIRCLE
  5
1B4
330
36D
100
AcDbEntity
  8
DATA
  6
Continuous
 62
     7
100
AcDbCircle
 10
-148.8933257111136
 20
-19.79965695034292
 30
0.0
 40
3.500000000000062
  0
LWPOLYLINE
  5
1B5
330
36D
100
AcDbEntity
  8
DATA
  6
Continuous
 62
     7
100
AcDbPolyline
 90
        4
 70
     0
 43
0.0
 10
-149.5056981468095
 20
-20.15321034093603
 10
-151.1960683428154
 20
-19.70027701200666
 10
-150.937249297713
 20
-18.73435118571768
 10
-149.2468791017069
 20
-19.18728451464705
  0
LWPOLYLINE
  5
1BC
330
36D
100
AcDbEntity
  8
DATA
  6
Continuous
 62
     7
100
AcDbPolyline
 90
        4
 70
     0
 43
0.0
 10
-148.2809532754179
 20
-19.44610355974953
 10
-146.590583079412
 20
-19.89903688867895
 10
-146.8494021245146
 20
-20.86496271496805
 10
-148.5397723205204
 20
-20.41202938603851
  0
LWPOLYLINE
  5
1C3
330
36D
100
AcDbEntity
  8
DATA
  6
Continuous
 62
     7
100
AcDbPolyline
 90
        4
 70
     0
 43
0.0
 10
-149.2468791017069
 20
-19.18728451464705
 10
-148.7939457727776
 20
-17.49691431864124
 10
-147.8280199464885
 20
-17.75573336374367
 10
-148.2809532754179
 20
-19.44610355974953
  0
LWPOLYLINE
  5
1CA
330
36D
100
AcDbEntity
  8
DATA
  6
Continuous
 62
     7
100
AcDbPolyline
 90
        4
 70
     0
 43
0.0
 10
-148.5397723205204
 20
-20.41202938603851
 10
-148.99270564945
 20
-22.10239958204454
 10
-149.9586314757387
 20
-21.84358053694205
 10
-149.5056981468095
 20
-20.15321034093603
  0
CIRCLE
  5
1D1
330
36D
100
AcDbEntity
  8
DATA
  6
Continuous
 62
     7
100
AcDbCircle
 10
-94.79965695034291
 20
-73.89332571111373
 30
0.0
 40
3.500000000000091
  0
LWPOLYLINE
  5
1D2
330
36D
100
AcDbEntity
  8
DATA
  6
Continuous
 62
     7
100
AcDbPolyline
 90
        4
 70
     0
 43
0.0
 10
-95.41202938603865
 20
-74.24687910170693
 10
-97.10239958204457
 20
-73.79394577277747
 10
-96.84358053694191
 20
-72.82801994648837
 10
-95.15321034093608
 20
-73.28095327541785
  0
LWPOLYLINE
  5
1D9
330
36D
100
AcDbEntity
  8
DATA
  6
Continuous
 62
     7
100
AcDbPolyline
 90
        4
 70
     0
 43
0.0
 10
-94.18728451464714
 20
-73.53977232052042
 10
-92.49691431864132
 20
-73.99270564944988
 10
-92.75573336374364
 20
-74.95863147573874
 10
-94.44610355974955
 20
-74.50569814680955
  0
LWPOLYLINE
  5
1E0
330
36D
100
AcDbEntity
  8
DATA
  6
Continuous
 62
     7
100
AcDbPolyline
 90
        4
 70
     0
 43
0.0
 10
-95.15321034093608
 20
-73.28095327541785
 10
-94.70027701200672
 20
-71.59058307941212
 10
-93.73435118571764
 20
-71.84940212451448
 10
-94.18728451464714
 20
-73.53977232052042
  0
LWPOLYLINE
  5
1E7
330
36D
100
AcDbEntity
  8
DATA
  6
Continuous
 62
     7
100
AcDbPolyline
 90
        4
 70
     0
 43
0.0
 10
-94.44610355974955
 20
-74.50569814680955
 10
-94.8990368886789
 20
-76.19606834281533
 10
-95.864962714968
 20
-75.93724929771285
 10
-95.41202938603865
 20
-74.24687910170693
  0
CIRCLE
  5
1EE
330
36D
100
AcDbEntity
  8
DATA
  6
Continuous
 62
     7
100
AcDbCircle
 10
-20.90633123922977
 20
-54.09366876077029
 30
0.0
 40
3.499999999999982
  0
LWPOLYLINE
  5
1EF
330
36D
100
AcDbEntity
  8
DATA
  6
Continuous
 62
     7
100
AcDbPolyline
 90
        4
 70
     0
 43
0.0
 10
-21.51870367492552
 20
-54.44722215136363
 10
-23.20907387093123
 20
-53.99428882243416
 10
-22.95025482582869
 20
-53.02836299614519
 10
-21.25988462982299
 20
-53.48129632507465
  0
LWPOLYLINE
  5
1F6
330
36D
100
AcDbEntity
  8
DATA
  6
Continuous
 62
     7
100
AcDbPolyline
 90
        4
 70
     0
 43
0.0
 10
-20.29395880353389
 20
-53.74011537017707
 10
-18.6035886075282
 20
-54.19304869910643
 10
-18.86240765263052
 20
-55.15897452539554
 10
-20.55277784863644
 20
-54.70604119646618
  0
LWPOLYLINE
  5
1FD
330
36D
100
AcDbEntity
  8
DATA
  6
Continuous
 62
     7
100
AcDbPolyline
 90
        4
 70
     0
 43
0.0
 10
-21.25988462982299
 20
-53.48129632507465
 10
-20.80695130089363
 20
-51.79092612906879
 10
-19.84102547460453
 20
-52.04974517417128
 10
-20.29395880353389
 20
-53.74011537017707
  0
LWPOLYLINE
  5
204
330
36D
100
AcDbEntity
  8
DATA
  6
Continuous
 62
     7
100
AcDbPolyline
 90
        4
 70
     0
 43
0.0
 10
-20.55277784863644
 20
-54.70604119646618
 10
-21.00571117756591
 20
-56.3964113924721
 10
-21.971637003855
 20
-56.13759234736965
 10
-21.51870367492552
 20
-54.44722215136363
  0
CIRCLE
  5
20B
330
36D
100
AcDbEntity
  8
DATA
  6
Continuous
 62
     7
100
AcDbCircle
 10
-1.106674288885542
 20
19.79965695034303
 30
0.0
 40
3.499999999999843
  0
LWPOLYLINE
  5
20C
330
36D
100
AcDbEntity
  8
DATA
  6
Continuous
 62
     7
100
AcDbPolyline
 90
        4
 70
     0
 43
0.0
 10
-1.719046724581417
 20
19.44610355974981
 10
-3.409416920587332
 20
19.89903688867906
 10
-3.150597875484677
 20
20.86496271496821
 10
-1.460227679478762
 20
20.41202938603873
  0
LWPOLYLINE
  5
213
330
36D
100
AcDbEntity
  8
DATA
  6
Continuous
 62
     7
100
AcDbPolyline
 90
        4
 70
     0
 43
0.0
 10
-0.4943018531896685
 20
20.15321034093614
 10
1.196068342816246
 20
19.70027701200684
 10
0.937249297713592
 20
18.73435118571785
 10
-0.7531208982922096
 20
19.18728451464716
  0
LWPOLYLINE
  5
21A
330
36D
100
AcDbEntity
  8
DATA
  6
Continuous
 62
     7
100
AcDbPolyline
 90
        4
 70
     0
 43
0.0
 10
-1.460227679478762
 20
20.41202938603873
 10
-1.007294350549514
 20
22.10239958204466
 10
-0.0413685242603066
 20
21.84358053694211
 10
-0.4943018531896685
 20
20.15321034093614
  0
LWPOLYLINE
  5
221
330
36D
100
AcDbEntity
  8
DATA
  6
Continuous
 62
     7
100
AcDbPolyline
 90
        4
 70
     0
 43
0.0
 10
-0.7531208982922096
 20
19.18728451464716
 10
-1.206054227221571
 20
17.49691431864124
 10
-2.171980053510665
 20
17.75573336374378
 10
-1.719046724581417
 20
19.44610355974981
  0
CIRCLE
  5
228
330
36D
100
AcDbEntity
  8
DATA
  6
Continuous
 62
     7
100
AcDbCircle
 10
-209.3760447723849
 20
-48.90888049557048
 30
0.0
 40
1.499999999999948
  0
CIRCLE
  5
229
330
36D
100
AcDbEntity
  8
DATA
  6
Continuous
 62
     7
100
AcDbCircle
 10
-123.9088804955709
 20
134.3760447723852
 30
0.0
 40
1.499999999999893
  0
CIRCLE
  5
22A
330
36D
100
AcDbEntity
  8
DATA
  6
Continuous
 62
     7
100
AcDbCircle
 10
59.37604477238487
 20
48.90888049557048
 30
0.0
 40
1.499999999999985
  0
CIRCLE
  5
22B
330
36D
100
AcDbEntity
  8
DATA
  6
Continuous
 62
     7
100
AcDbCircle
 10
-26.09111950442946
 20
-134.3760447723855
 30
0.0
 40
1.500000000000095
  0
LINE
  5
22C
330
36D
100
AcDbEntity
  8
DATA
  6
Continuous
 62
     7
100
AcDbLine
 10
148.5
 20
-115.4999999999996
 30
0.0
 11
148.5
 21
51.18768320177031
 31
0.0
  0
LINE
  5
22D
330
36D
100
AcDbEntity
  8
DATA
  6
Continuous
 62
     7
100
AcDbLine
 10
231.5
 20
26.40054058588061
 30
0.0
 11
231.5
 21
-42.59945941411939
 31
0.0
  0
LINE
  5
22E
330
36D
100
AcDbEntity
  8
DATA
  6
Continuous
 62
     7
100
AcDbLine
 10
231.5
 20
26.40054058588061
 30
0.0
 11
171.5757931193782
 21
26.40054058588061
 31
0.0
  0
LINE
  5
22F
330
36D
100
AcDbEntity
  8
DATA
  6
Continuous
 62
     7
100
AcDbLine
 10
231.5
 20
-42.59945941411939
 30
0.0
 11
171.5757931193782
 21
-42.59945941411939
 31
0.0
  0
LINE
  5
230
330
36D
100
AcDbEntity
  8
DATA
  6
Continuous
 62
     7
100
AcDbLine
 10
172.5
 20
39.4005405858806
 30
0.0
 11
172.5
 21
26.40054058588061
 31
0.0
  0
LINE
  5
231
330
36D
100
AcDbEntity
  8
DATA
  6
Continuous
 62
     7
100
AcDbLine
 10
172.5
 20
-42.59945941411939
 30
0.0
 11
172.5
 21
-55.59945941411939
 31
0.0
  0
LINE
  5
232
330
36D
100
AcDbEntity
  8
DATA
  6
Continuous
 62
     7
100
AcDbLine
 10
171.5757931193782
 20
39.4005405858806
 30
0.0
 11
172.5
 21
39.4005405858806
 31
0.0
  0
LINE
  5
233
330
36D
100
AcDbEntity
  8
DATA
  6
Continuous
 62
     7
100
AcDbLine
 10
171.5757931193782
 20
-55.59945941411939
 30
0.0
 11
172.5
 21
-55.59945941411939
 31
0.0
  0
LINE
  5
234
330
36D
100
AcDbEntity
  8
DATA
  6
Continuous
 62
     7
100
AcDbLine
 10
226.7
 20
19.80054058588059
 30
0.0
 11
171.5757931193782
 21
19.80054058588059
 31
0.0
  0
LINE
  5
235
330
36D
100
AcDbEntity
  8
DATA
  6
Continuous
 62
     7
100
AcDbLine
 10
226.7
 20
-35.99945941411937
 30
0.0
 11
171.5757931193782
 21
-35.99945941411937
 31
0.0
  0
LINE
  5
236
330
36D
100
AcDbEntity
  8
DATA
  6
Continuous
 62
     7
100
AcDbLine
 10
226.7
 20
19.80054058588059
 30
0.0
 11
226.7
 21
-35.99945941411937
 31
0.0
  0
LINE
  5
237
330
36D
100
AcDbEntity
  8
DATA
  6
Continuous
 62
     7
100
AcDbLine
 10
226.7
 20
19.80054058588059
 30
0.0
 11
231.5
 21
26.40054058588061
 31
0.0
  0
LINE
  5
238
330
36D
100
AcDbEntity
  8
DATA
  6
Continuous
 62
     7
100
AcDbLine
 10
226.7
 20
-35.99945941411937
 30
0.0
 11
231.5
 21
-42.59945941411939
 31
0.0
  0
LINE
  5
239
330
36D
100
AcDbEntity
  8
DATA
  6
Continuous
 62
     7
100
AcDbLine
 10
219.5
 20
-29.5994594141194
 30
0.0
 11
184.5
 21
-29.5994594141194
 31
0.0
  0
LINE
  5
23A
330
36D
100
AcDbEntity
  8
DATA
  6
Continuous
 62
     7
100
AcDbLine
 10
219.5
 20
13.4005405858806
 30
0.0
 11
219.5
 21
-29.5994594141194
 31
0.0
  0
LINE
  5
23B
330
36D
100
AcDbEntity
  8
DATA
  6
Continuous
 62
     7
100
AcDbLine
 10
184.5
 20
13.4005405858806
 30
0.0
 11
184.5
 21
-29.5994594141194
 31
0.0
  0
LINE
  5
23C
330
36D
100
AcDbEntity
  8
DATA
  6
Continuous
 62
     7
100
AcDbLine
 10
219.5
 20
13.4005405858806
 30
0.0
 11
184.5
 21
13.4005405858806
 31
0.0
  0
LINE
  5
23D
330
36D
100
AcDbEntity
  8
DATA
  6
Continuous
 62
     7
100
AcDbLine
 10
170.03690951465
 20
51.18768320177031
 30
0.0
 11
170.03690951465
 21
-68.30425515003634
 31
0.0
  0
LINE
  5
23E
330
36D
100
AcDbEntity
  8
DATA
  6
Continuous
 62
     7
100
AcDbLine
 10
171.5757931193782
 20
39.4005405858806
 30
0.0
 11
171.5757931193782
 21
26.40054058588061
 31
0.0
  0
LINE
  5
23F
330
36D
100
AcDbEntity
  8
DATA
  6
Continuous
 62
     7
100
AcDbLine
 10
171.5757931193782
 20
-42.59945941411939
 30
0.0
 11
171.5757931193782
 21
-55.59945941411939
 31
0.0
  0
LINE
  5
240
330
36D
100
AcDbEntity
  8
DATA
  6
Continuous
 62
     7
100
AcDbLine
 10
173.0
 20
19.80054058588059
 30
0.0
 11
173.0
 21
-35.99945941411937
 31
0.0
  0
LINE
  5
241
330
36D
100
AcDbEntity
  8
DATA
  6
Continuous
 62
     7
100
AcDbLine
 10
171.5757931193782
 20
38.70054058588062
 30
0.0
 11
170.03690951465
 21
38.70054058588062
 31
0.0
  0
LINE
  5
242
330
36D
100
AcDbEntity
  8
DATA
  6
Continuous
 62
     7
100
AcDbLine
 10
171.5757931193782
 20
26.40054058588061
 30
0.0
 11
171.5757931193782
 21
18.30054058588064
 31
0.0
  0
LINE
  5
243
330
36D
100
AcDbEntity
  8
DATA
  6
Continuous
 62
     7
100
AcDbLine
 10
171.5757931193782
 20
18.30054058588064
 30
0.0
 11
170.03690951465
 21
18.30054058588064
 31
0.0
  0
LINE
  5
244
330
36D
100
AcDbEntity
  8
DATA
  6
Continuous
 62
     7
100
AcDbLine
 10
171.5757931193782
 20
-54.8994594141194
 30
0.0
 11
170.03690951465
 21
-54.8994594141194
 31
0.0
  0
LINE
  5
245
330
36D
100
AcDbEntity
  8
DATA
  6
Continuous
 62
     7
100
AcDbLine
 10
171.5757931193782
 20
-34.49945941411943
 30
0.0
 11
170.03690951465
 21
-34.49945941411943
 31
0.0
  0
LINE
  5
246
330
36D
100
AcDbEntity
  8
DATA
  6
Continuous
 62
     7
100
AcDbLine
 10
171.5757931193782
 20
-34.49945941411943
 30
0.0
 11
171.5757931193782
 21
-43.79945941411937
 31
0.0
  0
LINE
  5
247
330
36D
100
AcDbEntity
  8
DATA
  6
Continuous
 62
     7
100
AcDbLine
 10
170.03690951465
 20
-61.59945941411939
 30
0.0
 11
168.5
 21
-61.59945941411939
 31
0.0
  0
LINE
  5
248
330
36D
100
AcDbEntity
  8
DATA
  6
Continuous
 62
     7
100
AcDbLine
 10
174.0
 20
34.40054058588061
 30
0.0
 11
181.5
 21
34.40054058588061
 31
0.0
  0
LINE
  5
249
330
36D
100
AcDbEntity
  8
DATA
  6
Continuous
 62
     7
100
AcDbLine
 10
174.0
 20
30.40054058588061
 30
0.0
 11
181.5
 21
30.40054058588061
 31
0.0
  0
LINE
  5
24A
330
36D
100
AcDbEntity
  8
DATA
  6
Continuous
 62
     7
100
AcDbLine
 10
166.5
 20
33.90054058588061
 30
0.0
 11
166.5
 21
30.90054058588061
 31
0.0
  0
LINE
  5
24B
330
36D
100
AcDbEntity
  8
DATA
  6
Continuous
 62
     7
100
AcDbLine
 10
168.5
 20
34.90054058588061
 30
0.0
 11
167.5
 21
34.90054058588061
 31
0.0
  0
LINE
  5
24C
330
36D
100
AcDbEntity
  8
DATA
  6
Continuous
 62
     7
100
AcDbLine
 10
167.5
 20
29.90054058588061
 30
0.0
 11
168.5
 21
29.90054058588061
 31
0.0
  0
ARC
  5
24D
330
36D
100
AcDbEntity
  8
DATA
  6
Continuous
 62
     7
100
AcDbCircle
 10
167.5
 20
33.90054058588062
 30
0.0
 40
1.0
100
AcDbArc
 50
90.0
 51
180.0
  0
ARC
  5
24E
330
36D
100
AcDbEntity
  8
DATA
  6
Continuous
 62
     7
100
AcDbCircle
 10
167.5
 20
30.90054058588063
 30
0.0
 40
1.0
100
AcDbArc
 50
180.0
 51
270.0
  0
LINE
  5
24F
330
36D
100
AcDbEntity
  8
DATA
  6
Continuous
 62
     7
100
AcDbLine
 10
172.5
 20
35.90054058588061
 30
0.0
 11
174.0
 21
35.90054058588061
 31
0.0
  0
LINE
  5
250
330
36D
100
AcDbEntity
  8
DATA
  6
Continuous
 62
     7
100
AcDbLine
 10
172.5
 20
28.90054058588061
 30
0.0
 11
174.0
 21
28.90054058588061
 31
0.0
  0
LINE
  5
251
330
36D
100
AcDbEntity
  8
DATA
  6
Continuous
 62
     7
100
AcDbLine
 10
174.0
 20
28.90054058588061
 30
0.0
 11
174.0
 21
35.90054058588061
 31
0.0
  0
LINE
  5
252
330
36D
100
AcDbEntity
  8
DATA
  6
Continuous
 62
     7
100
AcDbLine
 10
181.5
 20
30.40054058588061
 30
0.0
 11
181.5
 21
34.40054058588061
 31
0.0
  0
LINE
  5
253
330
36D
100
AcDbEntity
  8
DATA
  6
Continuous
 62
     7
100
AcDbLine
 10
172.5
 20
32.40054058588061
 30
0.0
 11
174.0
 21
32.40054058588061
 31
0.0
  0
LINE
  5
254
330
36D
100
AcDbEntity
  8
DATA
  6
Continuous
 62
     7
100
AcDbLine
 10
174.0
 20
-50.59945941411939
 30
0.0
 11
181.5
 21
-50.59945941411939
 31
0.0
  0
LINE
  5
255
330
36D
100
AcDbEntity
  8
DATA
  6
Continuous
 62
     7
100
AcDbLine
 10
174.0
 20
-46.59945941411939
 30
0.0
 11
181.5
 21
-46.59945941411939
 31
0.0
  0
LINE
  5
256
330
36D
100
AcDbEntity
  8
DATA
  6
Continuous
 62
     7
100
AcDbLine
 10
166.5
 20
-50.09945941411938
 30
0.0
 11
166.5
 21
-47.09945941411938
 31
0.0
  0
LINE
  5
257
330
36D
100
AcDbEntity
  8
DATA
  6
Continuous
 62
     7
100
AcDbLine
 10
168.5
 20
-51.09945941411939
 30
0.0
 11
167.5
 21
-51.09945941411939
 31
0.0
  0
LINE
  5
258
330
36D
100
AcDbEntity
  8
DATA
  6
Continuous
 62
     7
100
AcDbLine
 10
167.5
 20
-46.09945941411939
 30
0.0
 11
168.5
 21
-46.09945941411939
 31
0.0
  0
ARC
  5
259
330
36D
100
AcDbEntity
  8
DATA
  6
Continuous
 62
     7
100
AcDbCircle
 10
167.5
 20
-50.09945941411938
 30
0.0
 40
1.0
100
AcDbArc
 50
180.0
 51
270.0
  0
ARC
  5
25A
330
36D
100
AcDbEntity
  8
DATA
  6
Continuous
 62
     7
100
AcDbCircle
 10
167.5
 20
-47.09945941411938
 30
0.0
 40
1.0
100
AcDbArc
 50
90.0
 51
180.0
  0
LINE
  5
25B
330
36D
100
AcDbEntity
  8
DATA
  6
Continuous
 62
     7
100
AcDbLine
 10
172.5
 20
-52.09945941411938
 30
0.0
 11
174.0
 21
-52.09945941411938
 31
0.0
  0
LINE
  5
25C
330
36D
100
AcDbEntity
  8
DATA
  6
Continuous
 62
     7
100
AcDbLine
 10
172.5
 20
-45.09945941411938
 30
0.0
 11
174.0
 21
-45.09945941411938
 31
0.0
  0
LINE
  5
25D
330
36D
100
AcDbEntity
  8
DATA
  6
Continuous
 62
     7
100
AcDbLine
 10
174.0
 20
-45.09945941411938
 30
0.0
 11
174.0
 21
-52.09945941411938
 31
0.0
  0
LINE
  5
25E
330
36D
100
AcDbEntity
  8
DATA
  6
Continuous
 62
     7
100
AcDbLine
 10
181.5
 20
-46.59945941411939
 30
0.0
 11
181.5
 21
-50.59945941411939
 31
0.0
  0
LINE
  5
25F
330
36D
100
AcDbEntity
  8
DATA
  6
Continuous
 62
     7
100
AcDbLine
 10
172.5
 20
-48.59945941411939
 30
0.0
 11
174.0
 21
-48.59945941411939
 31
0.0
  0
LINE
  5
260
330
36D
100
AcDbEntity
  8
DATA
  6
Continuous
 62
     7
100
AcDbLine
 10
139.5
 20
10.69183642527434
 30
0.0
 11
139.5
 21
-11.00000000000005
 31
0.0
  0
LINE
  5
261
330
36D
100
AcDbEntity
  8
DATA
  6
Continuous
 62
     7
100
AcDbLine
 10
139.5
 20
-68.01576323891436
 30
0.0
 11
139.5
 21
-50.63209038836589
 31
0.0
  0
LINE
  5
262
330
36D
100
AcDbEntity
  8
DATA
  6
Continuous
 62
     7
100
AcDbLine
 10
137.5
 20
-69.17046377729353
 30
0.0
 11
139.5
 21
-68.0157632389143
 31
0.0
  0
LINE
  5
263
330
36D
100
AcDbEntity
  8
DATA
  6
Continuous
 62
     7
100
AcDbLine
 10
137.5
 20
-49.47738984998665
 30
0.0
 11
139.5
 21
-50.63209038836589
 31
0.0
  0
LINE
  5
264
330
36D
100
AcDbEntity
  8
DATA
  6
Continuous
 62
     7
100
AcDbLine
 10
141.5
 20
-49.78679092674514
 30
0.0
 11
141.5
 21
-68.86106270053506
 31
0.0
  0
LINE
  5
265
330
36D
100
AcDbEntity
  8
DATA
  6
Continuous
 62
     7
100
AcDbLine
 10
139.5
 20
-48.6320903883659
 30
0.0
 11
141.5
 21
-49.78679092674514
 31
0.0
  0
LINE
  5
266
330
36D
100
AcDbEntity
  8
DATA
  6
Continuous
 62
     7
100
AcDbLine
 10
139.5
 20
-70.01576323891431
 30
0.0
 11
141.5
 21
-68.86106270053506
 31
0.0
  0
LINE
  5
267
330
36D
100
AcDbEntity
  8
DATA
  6
Continuous
 62
     7
100
AcDbLine
 10
139.5
 20
133.4999999999991
 30
0.0
 11
148.5
 21
115.4999999999999
 31
0.0
  0
LINE
  5
268
330
36D
100
AcDbEntity
  8
DATA
  6
Continuous
 62
     7
100
AcDbLine
 10
139.5
 20
133.4999999999991
 30
0.0
 11
139.5
 21
60.29999999999996
 31
0.0
  0
LINE
  5
269
330
36D
100
AcDbEntity
  8
DATA
  6
Continuous
 62
     7
100
AcDbLine
 10
139.5
 20
-133.5000057037524
 30
0.0
 11
148.5
 21
-115.4999999999996
 31
0.0
  0
LINE
  5
26A
330
36D
100
AcDbEntity
  8
DATA
  6
Continuous
 62
     7
100
AcDbLine
 10
139.5
 20
-100.3996050417172
 30
0.0
 11
139.5
 21
-133.4800000000001
 31
0.0
  0
LINE
  5
26B
330
36D
100
AcDbEntity
  8
DATA
  6
Continuous
 62
     7
100
AcDbLine
 10
277.0013333266319
 20
39.99999999999994
 30
0.0
 11
277.0013333266319
 21
6.900907710930141
 31
0.0
  0
LINE
  5
26C
330
36D
100
AcDbEntity
  8
DATA
  6
Continuous
 62
     7
100
AcDbLine
 10
277.0013333266319
 20
-40.00000000000005
 30
0.0
 11
277.0013333266319
 21
-7.099092289069858
 31
0.0
  0
LINE
  5
26D
330
36D
100
AcDbEntity
  8
DATA
  6
Continuous
 62
     7
100
AcDbLine
 10
277.0013333266319
 20
39.99999999999994
 30
0.0
 11
270.5013333266317
 21
39.99999999999994
 31
0.0
  0
LINE
  5
26E
330
36D
100
AcDbEntity
  8
DATA
  6
Continuous
 62
     7
100
AcDbLine
 10
277.0013333266319
 20
-40.00000000000005
 30
0.0
 11
270.5013333266317
 21
-40.00000000000005
 31
0.0
  0
LINE
  5
26F
330
36D
100
AcDbEntity
  8
DATA
  6
Continuous
 62
     7
100
AcDbLine
 10
257.5013333266317
 20
42.40090771093014
 30
0.0
 11
257.5013333266317
 21
-42.59909228906985
 31
0.0
  0
LINE
  5
270
330
36D
100
AcDbEntity
  8
DATA
  6
Continuous
 62
     7
100
AcDbLine
 10
235.5
 20
57.64999999999992
 30
0.0
 11
235.5
 21
-57.6500000000001
 31
0.0
  0
LINE
  5
271
330
36D
100
AcDbEntity
  8
DATA
  6
Continuous
 62
     7
100
AcDbLine
 10
235.5
 20
57.64999999999992
 30
0.0
 11
229.5
 21
57.64999999999992
 31
0.0
  0
LINE
  5
272
330
36D
100
AcDbEntity
  8
DATA
  6
Continuous
 62
     7
100
AcDbLine
 10
235.5
 20
-57.6500000000001
 30
0.0
 11
202.5
 21
-57.6500000000001
 31
0.0
  0
LINE
  5
273
330
36D
100
AcDbEntity
  8
DATA
  6
Continuous
 62
     7
100
AcDbLine
 10
245.0013333266319
 20
-35.00000000000005
 30
0.0
 11
245.0013333266319
 21
34.99999999999995
 31
0.0
  0
LINE
  5
274
330
36D
100
AcDbEntity
  8
DATA
  6
Continuous
 62
     7
100
AcDbLine
 10
245.0013333266319
 20
34.99999999999995
 30
0.0
 11
257.5013333266317
 21
34.99999999999995
 31
0.0
  0
LINE
  5
275
330
36D
100
AcDbEntity
  8
DATA
  6
Continuous
 62
     7
100
AcDbLine
 10
245.0013333266319
 20
-35.00000000000005
 30
0.0
 11
257.5013333266317
 21
-35.00000000000005
 31
0.0
  0
LINE
  5
276
330
36D
100
AcDbEntity
  8
DATA
  6
Continuous
 62
     7
100
AcDbLine
 10
245.0013333266319
 20
19.49999999999995
 30
0.0
 11
235.5
 21
19.49999999999995
 31
0.0
  0
LINE
  5
277
330
36D
100
AcDbEntity
  8
DATA
  6
Continuous
 62
     7
100
AcDbLine
 10
245.0013333266319
 20
-19.50000000000005
 30
0.0
 11
235.5
 21
-19.50000000000005
 31
0.0
  0
LINE
  5
278
330
36D
100
AcDbEntity
  8
DATA
  6
Continuous
 62
     7
100
AcDbLine
 10
240.5013333266318
 20
5.900907710930141
 30
0.0
 11
236.5213333266318
 21
5.900907710930141
 31
0.0
  0
LINE
  5
279
330
36D
100
AcDbEntity
  8
DATA
  6
Continuous
 62
     7
100
AcDbLine
 10
241.5013333266319
 20
6.900907710930141
 30
0.0
 11
235.5
 21
6.900907710930141
 31
0.0
  0
LINE
  5
27A
330
36D
100
AcDbEntity
  8
DATA
  6
Continuous
 62
     7
100
AcDbLine
 10
240.5013333266318
 20
-6.099092289069858
 30
0.0
 11
236.5213333266318
 21
-6.099092289069858
 31
0.0
  0
LINE
  5
27B
330
36D
100
AcDbEntity
  8
DATA
  6
Continuous
 62
     7
100
AcDbLine
 10
241.5013333266319
 20
-7.099092289069858
 30
0.0
 11
235.5
 21
-7.099092289069858
 31
0.0
  0
LINE
  5
27C
330
36D
100
AcDbEntity
  8
DATA
  6
Continuous
 62
     7
100
AcDbLine
 10
156.0
 20
-76.89909228906987
 30
0.0
 11
156.0
 21
-85.00000000000005
 31
0.0
  0
LINE
  5
27D
330
36D
100
AcDbEntity
  8
DATA
  6
Continuous
 62
     7
100
AcDbLine
 10
148.5
 20
-85.00000000000005
 30
0.0
 11
156.0
 21
-85.00000000000005
 31
0.0
  0
LINE
  5
27E
330
36D
100
AcDbEntity
  8
DATA
  6
Continuous
 62
     7
100
AcDbLine
 10
202.5
 20
-51.50000000000006
 30
0.0
 11
199.5
 21
-51.50000000000006
 31
0.0
  0
LINE
  5
27F
330
36D
100
AcDbEntity
  8
DATA
  6
Continuous
 62
     7
100
AcDbLine
 10
195.3624252488256
 20
51.18768320177031
 30
0.0
 11
199.5
 21
48.99999999999994
 31
0.0
  0
LINE
  5
280
330
36D
100
AcDbEntity
  8
DATA
  6
Continuous
 62
     7
100
AcDbLine
 10
170.0369095146501
 20
-64.57818577386325
 30
0.0
 11
199.5
 21
-49.00000000000006
 31
0.0
  0
LINE
  5
281
330
36D
100
AcDbEntity
  8
DATA
  6
Continuous
 62
     7
100
AcDbLine
 10
199.5
 20
51.18768320177031
 30
0.0
 11
199.5
 21
26.40054058588061
 31
0.0
  0
LINE
  5
282
330
36D
100
AcDbEntity
  8
DATA
  6
Continuous
 62
     7
100
AcDbLine
 10
202.5
 20
51.18768320177031
 30
0.0
 11
202.5
 21
26.40054058588061
 31
0.0
  0
LINE
  5
283
330
36D
100
AcDbEntity
  8
DATA
  6
Continuous
 62
     7
100
AcDbLine
 10
199.5
 20
-51.50000000000006
 30
0.0
 11
199.5
 21
-42.59945941411939
 31
0.0
  0
LINE
  5
284
330
36D
100
AcDbEntity
  8
DATA
  6
Continuous
 62
     7
100
AcDbLine
 10
202.5
 20
-57.6500000000001
 30
0.0
 11
202.5
 21
-42.59945941411939
 31
0.0
  0
LINE
  5
285
330
36D
100
AcDbEntity
  8
DATA
  6
Continuous
 62
     7
100
AcDbLine
 10
295.5
 20
-72.09909228906986
 30
0.0
 11
268.5
 21
-72.09909228906986
 31
0.0
  0
LINE
  5
286
330
36D
100
AcDbEntity
  8
DATA
  6
Continuous
 62
     7
100
AcDbLine
 10
168.5
 20
-61.59945941411939
 30
0.0
 11
168.5
 21
51.18768320177031
 31
0.0
  0
LINE
  5
287
330
36D
100
AcDbEntity
  8
DATA
  6
Continuous
 62
     7
100
AcDbLine
 10
295.5
 20
-72.09909228906986
 30
0.0
 11
295.5
 21
-74.89909228906987
 31
0.0
  0
LINE
  5
288
330
36D
100
AcDbEntity
  8
DATA
  6
Continuous
 62
     7
100
AcDbLine
 10
295.5
 20
-74.89909228906987
 30
0.0
 11
158.0
 21
-74.89909228906987
 31
0.0
  0
LINE
  5
289
330
36D
100
AcDbEntity
  8
DATA
  6
Continuous
 62
     7
100
AcDbLine
 10
268.5
 20
-68.30425515003634
 30
0.0
 11
268.5
 21
-72.09909228906986
 31
0.0
  0
LINE
  5
28A
330
36D
100
AcDbEntity
  8
DATA
  6
Continuous
 62
     7
100
AcDbLine
 10
268.5
 20
-68.30425515003634
 30
0.0
 11
170.03690951465
 21
-68.30425515003634
 31
0.0
  0
LINE
  5
28B
330
36D
100
AcDbEntity
  8
DATA
  6
Continuous
 62
     7
100
AcDbLine
 10
287.5
 20
-79.69909228906989
 30
0.0
 11
287.5
 21
-81.24909228906989
 31
0.0
  0
LINE
  5
28C
330
36D
100
AcDbEntity
  8
DATA
  6
Continuous
 62
     7
100
AcDbLine
 10
172.5
 20
-79.69909228906989
 30
0.0
 11
172.5
 21
-81.24909228906989
 31
0.0
  0
LINE
  5
28D
330
36D
100
AcDbEntity
  8
DATA
  6
Continuous
 62
     7
100
AcDbLine
 10
287.5
 20
-79.69909228906989
 30
0.0
 11
172.5
 21
-79.69909228906989
 31
0.0
  0
LINE
  5
28E
330
36D
100
AcDbEntity
  8
DATA
  6
Continuous
 62
     7
100
AcDbLine
 10
287.5
 20
-81.24909228906989
 30
0.0
 11
172.5
 21
-81.24909228906989
 31
0.0
  0
LINE
  5
28F
330
36D
100
AcDbEntity
  8
DATA
  6
Continuous
 62
     7
100
AcDbLine
 10
286.5
 20
-74.89909228906987
 30
0.0
 11
286.5
 21
-79.69909228906989
 31
0.0
  0
LINE
  5
290
330
36D
100
AcDbEntity
  8
DATA
  6
Continuous
 62
     7
100
AcDbLine
 10
268.5
 20
-74.89909228906987
 30
0.0
 11
268.5
 21
-79.69909228906989
 31
0.0
  0
LINE
  5
291
330
36D
100
AcDbEntity
  8
DATA
  6
Continuous
 62
     7
100
AcDbLine
 10
272.5
 20
-83.74909228906989
 30
0.0
 11
272.5
 21
-81.24909228906989
 31
0.0
  0
LINE
  5
292
330
36D
100
AcDbEntity
  8
DATA
  6
Continuous
 62
     7
100
AcDbLine
 10
282.5
 20
-81.24909228906989
 30
0.0
 11
282.5
 21
-83.74909228906989
 31
0.0
  0
LINE
  5
293
330
36D
100
AcDbEntity
  8
DATA
  6
Continuous
 62
     7
100
AcDbLine
 10
272.5
 20
-83.74909228906989
 30
0.0
 11
282.5
 21
-83.74909228906989
 31
0.0
  0
LWPOLYLINE
  5
294
330
36D
100
AcDbEntity
  8
DATA
  6
Continuous
 62
     7
100
AcDbPolyline
 90
       10
 70
   128
 43
0.0
 10
281.0
 20
-83.74909228906989
 10
281.0
 20
-83.99211144144585
 10
281.0
 20
-83.99211144144585
 10
281.0
 20
-83.99211144144585
 42
-0.4142135623730951
 10
279.0
 20
-85.99211144144584
 10
276.0
 20
-85.99211144144584
 10
276.0
 20
-85.99211144144584
 10
276.0
 20
-85.99211144144584
 42
-0.4142135623730951
 10
274.0
 20
-83.99211144144585
 10
274.0
 20
-83.74909228906989
  0
LINE
  5
2A0
330
36D
100
AcDbEntity
  8
DATA
  6
Continuous
 62
     7
100
AcDbLine
 10
173.5
 20
-74.89909228906987
 30
0.0
 11
173.5
 21
-79.69909228906989
 31
0.0
  0
LINE
  5
2A1
330
36D
100
AcDbEntity
  8
DATA
  6
Continuous
 62
     7
100
AcDbLine
 10
191.5
 20
-74.89909228906987
 30
0.0
 11
191.5
 21
-79.69909228906989
 31
0.0
  0
LINE
  5
2A2
330
36D
100
AcDbEntity
  8
DATA
  6
Continuous
 62
     7
100
AcDbLine
 10
187.5
 20
-83.74909228906989
 30
0.0
 11
187.5
 21
-81.24909228906989
 31
0.0
  0
LINE
  5
2A3
330
36D
100
AcDbEntity
  8
DATA
  6
Continuous
 62
     7
100
AcDbLine
 10
177.5
 20
-81.24909228906989
 30
0.0
 11
177.5
 21
-83.74909228906989
 31
0.0
  0
LINE
  5
2A4
330
36D
100
AcDbEntity
  8
DATA
  6
Continuous
 62
     7
100
AcDbLine
 10
187.5
 20
-83.74909228906989
 30
0.0
 11
177.5
 21
-83.74909228906989
 31
0.0
  0
LWPOLYLINE
  5
2A5
330
36D
100
AcDbEntity
  8
DATA
  6
Continuous
 62
     7
100
AcDbPolyline
 90
       10
 70
   128
 43
0.0
 10
179.0
 20
-83.74909228906989
 10
179.0
 20
-83.99211144144585
 10
179.0
 20
-83.99211144144585
 10
179.0
 20
-83.99211144144585
 42
0.4142135623730971
 10
181.0
 20
-85.99211144144584
 10
184.0
 20
-85.99211144144584
 10
184.0
 20
-85.99211144144584
 10
184.0
 20
-85.99211144144584
 42
0.4142135623730951
 10
186.0
 20
-83.99211144144585
 10
186.0
 20
-83.74909228906989
  0
LINE
  5
2B1
330
36D
100
AcDbEntity
  8
DATA
  6
Continuous
 62
     7
100
AcDbLine
 10
263.737245585833
 20
-103.2490922890699
 30
0.0
 11
238.7372455858328
 21
-103.2490922890699
 31
0.0
  0
LINE
  5
2B2
330
36D
100
AcDbEntity
  8
DATA
  6
Continuous
 62
     7
100
AcDbLine
 10
223.7372455858329
 20
-103.2490922890699
 30
0.0
 11
203.7372455858328
 21
-103.2490922890699
 31
0.0
  0
LINE
  5
2B3
330
36D
100
AcDbEntity
  8
DATA
  6
Continuous
 62
     7
100
AcDbLine
 10
263.737245585833
 20
-81.24909228906989
 30
0.0
 11
263.737245585833
 21
-103.2490922890699
 31
0.0
  0
LINE
  5
2B4
330
36D
100
AcDbEntity
  8
DATA
  6
Continuous
 62
     7
100
AcDbLine
 10
238.7372455858328
 20
-81.24909228906989
 30
0.0
 11
238.7372455858328
 21
-103.2490922890699
 31
0.0
  0
ARC
  5
2B5
330
36D
100
AcDbEntity
  8
DATA
  6
Continuous
 62
     7
100
AcDbCircle
 10
272.7374156113992
 20
-91.24909228907005
 30
0.0
 40
9.999999999999827
100
AcDbArc
 50
90.0
 51
154.1603022369526
  0
ARC
  5
2B6
330
36D
100
AcDbEntity
  8
DATA
  6
Continuous
 62
     7
100
AcDbCircle
 10
272.7374156113992
 20
-91.24909228907005
 30
0.0
 40
9.99999999999984
100
AcDbArc
 50
205.8396977630472
 51
37.73729132971506
  0
ARC
  5
2B7
330
36D
100
AcDbEntity
  8
DATA
  6
Continuous
 62
     7
100
AcDbCircle
 10
190.5307791188381
 20
-91.24909228906988
 30
0.0
 40
9.999999999999939
100
AcDbArc
 50
148.2847501270069
 51
107.6425637894658
  0
LINE
  5
2B8
330
36D
100
AcDbEntity
  8
DATA
  6
Continuous
 62
     7
100
AcDbLine
 10
223.7372455858329
 20
-81.24909228906989
 30
0.0
 11
223.7372455858329
 21
-103.2490922890699
 31
0.0
  0
LINE
  5
2B9
330
36D
100
AcDbEntity
  8
DATA
  6
Continuous
 62
     7
100
AcDbLine
 10
203.7372455858328
 20
-81.24909228906989
 30
0.0
 11
203.7372455858328
 21
-103.2490922890699
 31
0.0
  0
LINE
  5
2BA
330
36D
100
AcDbEntity
  8
DATA
  6
Continuous
 62
     7
100
AcDbLine
 10
263.737245585833
 20
-94.74909228906987
 30
0.0
 11
238.7372455858328
 21
-94.74909228906987
 31
0.0
  0
LINE
  5
2BB
330
36D
100
AcDbEntity
  8
DATA
  6
Continuous
 62
     7
100
AcDbLine
 10
223.7372455858329
 20
-94.74909228906987
 30
0.0
 11
203.7372455858328
 21
-94.74909228906987
 31
0.0
  0
LINE
  5
2BC
330
36D
100
AcDbEntity
  8
DATA
  6
Continuous
 62
     7
100
AcDbLine
 10
252.023394762734
 20
-106.2490922890699
 30
0.0
 11
212.0233947627337
 21
-106.2490922890699
 31
0.0
  0
LWPOLYLINE
  5
2BD
330
36D
100
AcDbEntity
  8
DATA
  6
Continuous
 62
     7
100
AcDbPolyline
 90
        4
 70
     0
 43
0.0
 10
212.0233947627337
 20
-106.2490922890699
 10
212.0233947627337
 20
-105.1682928787783
 10
252.023394762734
 20
-105.1682928787783
 10
252.023394762734
 20
-106.2490922890699
  0
LINE
  5
2C4
330
36D
100
AcDbEntity
  8
DATA
  6
Continuous
 62
     7
100
AcDbLine
 10
248.0233947627338
 20
-103.2490922890699
 30
0.0
 11
248.0233947627338
 21
-105.1682928787783
 31
0.0
  0
LINE
  5
2C5
330
36D
100
AcDbEntity
  8
DATA
  6
Continuous
 62
     7
100
AcDbLine
 10
216.0233947627338
 20
-105.1682928787783
 30
0.0
 11
216.0233947627338
 21
-103.2490922890699
 31
0.0
  0
CIRCLE
  5
2C6
330
36D
100
AcDbEntity
  8
DATA
  6
Continuous
 62
     7
100
AcDbCircle
 10
261.2372455858329
 20
-98.24308154423651
 30
0.0
 40
1.850000000000022
  0
LINE
  5
2C7
330
36D
100
AcDbEntity
  8
DATA
  6
Continuous
 62
     7
100
AcDbLine
 10
263.0183968988886
 20
-98.74308154423651
 30
0.0
 11
259.4560942727773
 21
-98.74308154423651
 31
0.0
  0
LINE
  5
2C8
330
36D
100
AcDbEntity
  8
DATA
  6
Continuous
 62
     7
100
AcDbLine
 10
259.4560942727773
 20
-97.7430815442365
 30
0.0
 11
263.0183968988886
 21
-97.7430815442365
 31
0.0
  0
CIRCLE
  5
2C9
330
36D
100
AcDbEntity
  8
DATA
  6
Continuous
 62
     7
100
AcDbCircle
 10
256.2372455858329
 20
-98.24308154423651
 30
0.0
 40
1.850000000000022
  0
LINE
  5
2CA
330
36D
100
AcDbEntity
  8
DATA
  6
Continuous
 62
     7
100
AcDbLine
 10
258.0183968988886
 20
-98.74308154423651
 30
0.0
 11
254.4560942727772
 21
-98.74308154423651
 31
0.0
  0
LINE
  5
2CB
330
36D
100
AcDbEntity
  8
DATA
  6
Continuous
 62
     7
100
AcDbLine
 10
254.4560942727772
 20
-97.7430815442365
 30
0.0
 11
258.0183968988886
 21
-97.7430815442365
 31
0.0
  0
CIRCLE
  5
2CC
330
36D
100
AcDbEntity
  8
DATA
  6
Continuous
 62
     7
100
AcDbCircle
 10
251.2372455858328
 20
-98.24308154423651
 30
0.0
 40
1.850000000000022
  0
LINE
  5
2CD
330
36D
100
AcDbEntity
  8
DATA
  6
Continuous
 62
     7
100
AcDbLine
 10
253.0183968988886
 20
-98.74308154423651
 30
0.0
 11
249.4560942727772
 21
-98.74308154423651
 31
0.0
  0
LINE
  5
2CE
330
36D
100
AcDbEntity
  8
DATA
  6
Continuous
 62
     7
100
AcDbLine
 10
249.4560942727772
 20
-97.7430815442365
 30
0.0
 11
253.0183968988886
 21
-97.7430815442365
 31
0.0
  0
CIRCLE
  5
2CF
330
36D
100
AcDbEntity
  8
DATA
  6
Continuous
 62
     7
100
AcDbCircle
 10
246.2372455858329
 20
-98.24308154423651
 30
0.0
 40
1.850000000000022
  0
LINE
  5
2D0
330
36D
100
AcDbEntity
  8
DATA
  6
Continuous
 62
     7
100
AcDbLine
 10
248.0183968988886
 20
-98.74308154423651
 30
0.0
 11
244.4560942727772
 21
-98.74308154423651
 31
0.0
  0
LINE
  5
2D1
330
36D
100
AcDbEntity
  8
DATA
  6
Continuous
 62
     7
100
AcDbLine
 10
244.4560942727772
 20
-97.7430815442365
 30
0.0
 11
248.0183968988886
 21
-97.7430815442365
 31
0.0
  0
CIRCLE
  5
2D2
330
36D
100
AcDbEntity
  8
DATA
  6
Continuous
 62
     7
100
AcDbCircle
 10
241.2372455858328
 20
-98.24308154423651
 30
0.0
 40
1.850000000000022
  0
LINE
  5
2D3
330
36D
100
AcDbEntity
  8
DATA
  6
Continuous
 62
     7
100
AcDbLine
 10
243.0183968988886
 20
-98.74308154423651
 30
0.0
 11
239.4560942727772
 21
-98.74308154423651
 31
0.0
  0
LINE
  5
2D4
330
36D
100
AcDbEntity
  8
DATA
  6
Continuous
 62
     7
100
AcDbLine
 10
239.4560942727772
 20
-97.7430815442365
 30
0.0
 11
243.0183968988886
 21
-97.7430815442365
 31
0.0
  0
LINE
  5
2D5
330
36D
100
AcDbEntity
  8
DATA
  6
Continuous
 62
     7
100
AcDbLine
 10
223.7372455858329
 20
-83.50000000000004
 30
0.0
 11
238.7372455858328
 21
-83.50000000000004
 31
0.0
  0
CIRCLE
  5
2D6
330
36D
100
AcDbEntity
  8
DATA
  6
Continuous
 62
     7
100
AcDbCircle
 10
216.2372455858328
 20
-98.24308154423651
 30
0.0
 40
1.850000000000022
  0
LINE
  5
2D7
330
36D
100
AcDbEntity
  8
DATA
  6
Continuous
 62
     7
100
AcDbLine
 10
218.0183968988886
 20
-98.74308154423651
 30
0.0
 11
214.4560942727772
 21
-98.74308154423651
 31
0.0
  0
LINE
  5
2D8
330
36D
100
AcDbEntity
  8
DATA
  6
Continuous
 62
     7
100
AcDbLine
 10
214.4560942727772
 20
-97.7430815442365
 30
0.0
 11
218.0183968988886
 21
-97.7430815442365
 31
0.0
  0
CIRCLE
  5
2D9
330
36D
100
AcDbEntity
  8
DATA
  6
Continuous
 62
     7
100
AcDbCircle
 10
211.2372455858329
 20
-98.24308154423651
 30
0.0
 40
1.850000000000022
  0
LINE
  5
2DA
330
36D
100
AcDbEntity
  8
DATA
  6
Continuous
 62
     7
100
AcDbLine
 10
213.0183968988886
 20
-98.74308154423651
 30
0.0
 11
209.4560942727772
 21
-98.74308154423651
 31
0.0
  0
LINE
  5
2DB
330
36D
100
AcDbEntity
  8
DATA
  6
Continuous
 62
     7
100
AcDbLine
 10
209.4560942727772
 20
-97.7430815442365
 30
0.0
 11
213.0183968988886
 21
-97.7430815442365
 31
0.0
  0
CIRCLE
  5
2DC
330
36D
100
AcDbEntity
  8
DATA
  6
Continuous
 62
     7
100
AcDbCircle
 10
221.2372455858329
 20
-98.24308154423651
 30
0.0
 40
1.850000000000022
  0
LINE
  5
2DD
330
36D
100
AcDbEntity
  8
DATA
  6
Continuous
 62
     7
100
AcDbLine
 10
223.0183968988886
 20
-98.74308154423651
 30
0.0
 11
219.4560942727772
 21
-98.74308154423651
 31
0.0
  0
LINE
  5
2DE
330
36D
100
AcDbEntity
  8
DATA
  6
Continuous
 62
     7
100
AcDbLine
 10
219.4560942727772
 20
-97.7430815442365
 30
0.0
 11
223.0183968988886
 21
-97.7430815442365
 31
0.0
  0
CIRCLE
  5
2DF
330
36D
100
AcDbEntity
  8
DATA
  6
Continuous
 62
     7
100
AcDbCircle
 10
206.2372455858329
 20
-98.24308154423651
 30
0.0
 40
1.850000000000022
  0
LINE
  5
2E0
330
36D
100
AcDbEntity
  8
DATA
  6
Continuous
 62
     7
100
AcDbLine
 10
208.0183968988886
 20
-98.74308154423651
 30
0.0
 11
204.4560942727772
 21
-98.74308154423651
 31
0.0
  0
LINE
  5
2E1
330
36D
100
AcDbEntity
  8
DATA
  6
Continuous
 62
     7
100
AcDbLine
 10
204.4560942727772
 20
-97.7430815442365
 30
0.0
 11
208.0183968988886
 21
-97.7430815442365
 31
0.0
  0
LINE
  5
2E2
330
36D
100
AcDbEntity
  8
DATA
  6
Continuous
 62
     7
100
AcDbLine
 10
158.8
 20
-77.69909228906989
 30
0.0
 11
158.8
 21
-86.71991566098315
 31
0.0
  0
LINE
  5
2E3
330
36D
100
AcDbEntity
  8
DATA
  6
Continuous
 62
     7
100
AcDbLine
 10
173.5
 20
-77.69909228906989
 30
0.0
 11
158.8
 21
-77.69909228906989
 31
0.0
  0
LINE
  5
2E4
330
36D
100
AcDbEntity
  8
DATA
  6
Continuous
 62
     7
100
AcDbLine
 10
156.0
 20
-85.00000000000005
 30
0.0
 11
156.0
 21
-86.71991566098315
 31
0.0
  0
LINE
  5
2E5
330
36D
100
AcDbEntity
  8
DATA
  6
Continuous
 62
     7
100
AcDbLine
 10
158.8
 20
-86.71991566098315
 30
0.0
 11
156.0
 21
-86.71991566098315
 31
0.0
  0
ARC
  5
2E6
330
36D
100
AcDbEntity
  8
DATA
  6
Continuous
 62
     7
100
AcDbCircle
 10
158.0
 20
-76.89909228906987
 30
0.0
 40
2.0
100
AcDbArc
 50
90.0
 51
180.0
  0
LINE
  5
2E7
330
36D
100
AcDbEntity
  8
DATA
  6
Continuous
 62
     7
100
AcDbLine
 10
156.0
 20
-77.45000000000003
 30
0.0
 11
156.0
 21
51.18768320177031
 31
0.0
  0
LINE
  5
2E8
330
36D
100
AcDbEntity
  8
DATA
  6
Continuous
 62
     7
100
AcDbLine
 10
158.25
 20
-74.89909228906987
 30
0.0
 11
156.0
 21
-74.89909228906987
 31
0.0
  0
LINE
  5
2E9
330
36D
100
AcDbEntity
  8
DATA
  6
Continuous
 62
     7
100
AcDbLine
 10
186.0
 20
26.40054058588061
 30
0.0
 11
186.0
 21
51.18768320177031
 31
0.0
  0
LINE
  5
2EA
330
36D
100
AcDbEntity
  8
DATA
  6
Continuous
 62
     7
100
AcDbLine
 10
139.5
 20
115.8457067722803
 30
0.0
 11
229.5
 21
115.8457067722803
 31
0.0
  0
LINE
  5
2EB
330
36D
100
AcDbEntity
  8
DATA
  6
Continuous
 62
     7
100
AcDbLine
 10
141.5
 20
51.18768320177031
 30
0.0
 11
229.5
 21
51.18768320177031
 31
0.0
  0
LINE
  5
2EC
330
36D
100
AcDbEntity
  8
DATA
  6
Continuous
 62
     7
100
AcDbLine
 10
229.5
 20
115.8457067722803
 30
0.0
 11
229.5
 21
51.18768320177031
 31
0.0
  0
LINE
  5
2ED
330
36D
100
AcDbEntity
  8
DATA
  6
Continuous
 62
     7
100
AcDbLine
 10
273.85
 20
-72.09909228906986
 30
0.0
 11
273.85
 21
-70.08487642567449
 31
0.0
  0
LINE
  5
2EE
330
36D
100
AcDbEntity
  8
DATA
  6
Continuous
 62
     7
100
AcDbLine
 10
281.15
 20
-70.08487642567449
 30
0.0
 11
281.15
 21
-72.09909228906986
 31
0.0
  0
LINE
  5
2EF
330
36D
100
AcDbEntity
  8
DATA
  6
Continuous
 62
     7
100
AcDbLine
 10
281.15
 20
-70.08487642567449
 30
0.0
 11
273.85
 21
-70.08487642567449
 31
0.0
  0
LINE
  5
2F0
330
36D
100
AcDbEntity
  8
DATA
  6
Continuous
 62
     7
100
AcDbLine
 10
277.5
 20
-70.08487642567449
 30
0.0
 11
277.5
 21
-72.09909228906986
 31
0.0
  0
LWPOLYLINE
  5
2F1
330
36D
100
AcDbEntity
  8
DATA
  6
Continuous
 62
     7
100
AcDbPolyline
 90
        4
 70
     0
 43
0.0
 10
275.5
 20
-70.08487642567449
 10
275.5
 20
-67.8296036319241
 10
279.5
 20
-67.8296036319241
 10
279.5
 20
-70.08487642567449
  0
CIRCLE
  5
2F8
330
36D
100
AcDbEntity
  8
DATA
  6
Continuous
 62
     7
100
AcDbCircle
 10
-75.00000000000001
 20
0.0
 30
0.0
 40
27.5
  0
TEXT
  5
2F9
330
36D
100
AcDbEntity
  8
DATA
 62
     7
100
AcDbText
 10
-341.0845452795486
 20
-460.8192192307724
 30
0.0
 40
9.501573350694446
  1
※仕様及び外観は予告なく変更されることがあります。
 41
0.7
 11
-341.0845452795486
 21
-451.317645880078
 31
0.0
100
AcDbText
 73
     3
  0
TEXT
  5
2FA
330
36D
100
AcDbEntity
  8
DATA
 62
     7
100
AcDbText
 10
-341.0845452795486
 20
-473.1664414529946
 30
0.0
 40
9.501573350694446
  1
　また、同一商品でも若干の個体差があることがあります。ご了承ください。
 41
0.7
 11
-341.0845452795486
 21
-463.6648681023002
 31
0.0
100
AcDbText
 73
     3
  0
TEXT
  5
2FB
330
36D
100
AcDbEntity
  8
DATA
 62
     7
100
AcDbText
 10
348.8959157087702
 20
-401.3127521126141
 30
0.0
 40
12.21630859375
  1
JBL PROFESSIONAL
 41
0.7
 11
348.8959157087702
 21
-389.0964435188641
 31
0.0
100
AcDbText
 73
     3
  0
TEXT
  5
2FC
330
36D
100
AcDbEntity
  8
DATA
 62
     7
100
AcDbText
 10
283.9532488265653
 20
-418.5718152236493
 30
0.0
 40
8.144205729166666
  1
天井埋込用同軸2-Wayフルレンジ・トランスデューサー
 41
0.7
 11
283.9532488265653
 21
-410.4276094944826
 31
0.0
100
AcDbText
 73
     3
  0
ENDSEC
  0
SECTION
  2
OBJECTS
  0
DICTIONARY
  5
30A
330
0
100
AcDbDictionary
281
     1
  3
ACAD_CIP_PREVIOUS_PRODUCT_INFO
350
386
  3
ACAD_COLOR
350
360
  3
ACAD_DETAILVIEWSTYLE
350
367
  3
ACAD_GROUP
350
30B
  3
ACAD_LAYOUT
350
35F
  3
ACAD_MATERIAL
350
30E
  3
ACAD_MLEADERSTYLE
350
363
  3
ACAD_MLINESTYLE
350
35C
  3
ACAD_PLOTSETTINGS
350
35E
  3
ACAD_PLOTSTYLENAME
350
30C
  3
ACAD_SCALELIST
350
340
  3
ACAD_SECTIONVIEWSTYLE
350
365
  3
ACAD_TABLESTYLE
350
361
  3
ACAD_VISUALSTYLE
350
327
  3
ACDB_RECOMPOSE_DATA
350
3A0
  3
AcDbVariableDictionary
350
393
  3
DWGPROPS
350
3A1
  0
DICTIONARY
  5
387
330
352
100
AcDbDictionary
280
     1
281
     1
  3
ADSK_XREC_LAYER_RECONCILED
360
388
  0
DICTIONARY
  5
389
330
371
100
AcDbDictionary
280
     1
281
     1
  3
ADSK_XREC_LAYER_RECONCILED
360
38A
  0
DICTIONARY
  5
38B
330
37D
100
AcDbDictionary
280
     1
281
     1
  3
ADSK_XREC_LAYER_RECONCILED
360
38C
  0
DICTIONARY
  5
38D
330
37E
100
AcDbDictionary
280
     1
281
     1
  3
ADSK_XREC_LAYER_RECONCILED
360
38E
  0
DICTIONARY
  5
38F
330
37F
100
AcDbDictionary
280
     1
281
     1
  3
ADSK_XREC_LAYER_RECONCILED
360
390
  0
DICTIONARY
  5
391
330
380
100
AcDbDictionary
280
     1
281
     1
  3
ADSK_XREC_LAYER_RECONCILED
360
392
  0
XRECORD
  5
386
102
{ACAD_REACTORS
330
30A
102
}
330
30A
100
AcDbXrecord
280
     1
300
ACDLT
300
2017
300
ACDLT_F_S
  0
DICTIONARY
  5
360
102
{ACAD_REACTORS
330
30A
102
}
330
30A
100
AcDbDictionary
281
     1
  0
DICTIONARY
  5
367
102
{ACAD_REACTORS
330
30A
102
}
330
30A
100
AcDbDictionary
281
     1
  3
Imperial24
350
368
  0
DICTIONARY
  5
30B
102
{ACAD_REACTORS
330
30A
102
}
330
30A
100
AcDbDictionary
281
     1
  0
DICTIONARY
  5
35F
102
{ACAD_REACTORS
330
30A
102
}
330
30A
100
AcDbDictionary
281
     1
  3
Model
350
370
  3
レイアウト1
350
36C
  0
DICTIONARY
  5
30E
102
{ACAD_REACTORS
330
30A
102
}
330
30A
100
AcDbDictionary
281
     1
  3
ByBlock
350
317
  3
ByLayer
350
30F
  3
Global
350
31F
  0
DICTIONARY
  5
363
102
{ACAD_REACTORS
330
30A
102
}
330
30A
100
AcDbDictionary
281
     1
  3
Standard
350
364
  0
DICTIONARY
  5
35C
102
{ACAD_REACTORS
330
30A
102
}
330
30A
100
AcDbDictionary
281
     1
  3
Standard
350
35D
  0
DICTIONARY
  5
35E
102
{ACAD_REACTORS
330
30A
102
}
330
30A
100
AcDbDictionary
281
     1
  0
ACDBDICTIONARYWDFLT
  5
30C
102
{ACAD_REACTORS
330
30A
102
}
330
30A
100
AcDbDictionary
281
     1
  3
Normal
350
30D
100
AcDbDictionaryWithDefault
340
30D
  0
DICTIONARY
  5
340
102
{ACAD_REACTORS
330
30A
102
}
330
30A
100
AcDbDictionary
281
     1
  3
A0
350
341
  3
A1
350
342
  3
A2
350
343
  3
A3
350
344
  3
A4
350
345
  3
A5
350
346
  3
A6
350
347
  3
A7
350
348
  3
A8
350
349
  3
A9
350
34A
  3
B0
350
34B
  3
B1
350
34C
  3
B2
350
34D
  3
B3
350
34E
  3
B4
350
34F
  3
B5
350
350
  3
B6
350
351
  0
DICTIONARY
  5
365
102
{ACAD_REACTORS
330
30A
102
}
330
30A
100
AcDbDictionary
281
     1
  3
Imperial24
350
366
  0
DICTIONARY
  5
361
102
{ACAD_REACTORS
330
30A
102
}
330
30A
100
AcDbDictionary
281
     1
  3
Standard
350
362
  0
DICTIONARY
  5
327
102
{ACAD_REACTORS
330
30A
102
}
330
30A
100
AcDbDictionary
281
     1
  3
2dWireframe
350
32D
  3
Basic
350
32C
  3
Brighten
350
333
  3
ColorChange
350
337
  3
Conceptual
350
330
  3
Dim
350
332
  3
EdgeColorOff
350
33F
  3
Facepattern
350
336
  3
Flat
350
328
  3
FlatWithEdges
350
329
  3
Gouraud
350
32A
  3
GouraudWithEdges
350
32B
  3
Hidden
350
32F
  3
JitterOff
350
33D
  3
Linepattern
350
335
  3
OverhangOff
350
33E
  3
Realistic
350
331
  3
Shaded
350
33C
  3
Shaded with edges
350
33B
  3
Shades of Gray
350
338
  3
Sketchy
350
339
  3
Thicken
350
334
  3
Wireframe
350
32E
  3
X-Ray
350
33A
  0
XRECORD
  5
3A0
102
{ACAD_REACTORS
330
30A
102
}
330
30A
100
AcDbXrecord
280
     1
 90
        1
330
362
  0
DICTIONARY
  5
393
102
{ACAD_REACTORS
330
30A
102
}
330
30A
100
AcDbDictionary
281
     1
  3
CANNOSCALE
350
398
  3
CMLEADERSTYLE
350
395
  3
CTABLESTYLE
350
394
  3
CVIEWDETAILSTYLE
350
396
  3
CVIEWSECTIONSTYLE
350
397
  3
DIMASSOC
350
39B
  3
INDEXCTL
350
39A
  3
SORTENTS
350
399
  3
XCLIPFRAME
350
39C
  0
XRECORD
  5
3A1
102
{ACAD_REACTORS
330
30A
102
}
330
30A
100
AcDbXrecord
280
     1
  1
DWGPROPS COOKIE
  2

  3

  4

  6

  7

  8
sasaki_n
  9

300
=
301
=
302
=
303
=
304
=
305
=
306
=
307
=
308
=
309
=
 40
0.0003125
 41
2457823.469768519
 42
2457823.483020833
  1

 90
        0
  0
XRECORD
  5
388
102
{ACAD_REACTORS
330
387
102
}
330
387
100
AcDbXrecord
280
     1
290
     1
  0
XRECORD
  5
38A
102
{ACAD_REACTORS
330
389
102
}
330
389
100
AcDbXrecord
280
     1
290
     1
  0
XRECORD
  5
38C
102
{ACAD_REACTORS
330
38B
102
}
330
38B
100
AcDbXrecord
280
     1
290
     1
  0
XRECORD
  5
38E
102
{ACAD_REACTORS
330
38D
102
}
330
38D
100
AcDbXrecord
280
     1
290
     1
  0
XRECORD
  5
390
102
{ACAD_REACTORS
330
38F
102
}
330
38F
100
AcDbXrecord
280
     1
290
     1
  0
XRECORD
  5
392
102
{ACAD_REACTORS
330
391
102
}
330
391
100
AcDbXrecord
280
     1
290
     1
  0
ACDBDETAILVIEWSTYLE
  5
368
102
{ACAD_XDICTIONARY
360
3D9
102
}
102
{ACAD_REACTORS
330
367
102
}
330
367
100
AcDbModelDocViewStyle
 70
     0
  3
Imperial24
290
     0
100
AcDbDetailViewStyle
 70
     0
 71
     0
 90
        3
 71
     1
340
353
 40
0.24
340
0
 40
0.24
300

 40
0.36
280
     3
 71
     2
340
35A
 90
       25
 71
     3
340
353
 40
0.24
 90
        1
 40
0.75
 90
        1
300
%<\AcVar ViewType \f "%tc1">% %<\AcVar ViewDetailId>%\PSCALE %<\AcVar ViewScale \f "%sn">%
 71
     4
340
35A
 90
       25
340
35A
 90
       25
280
     0
  0
LAYOUT
  5
370
102
{ACAD_XDICTIONARY
360
3DD
102
}
102
{ACAD_REACTORS
330
35F
102
}
330
35F
100
AcDbPlotSettings
  1

  2
DocuPrint 3000-2
  4

  6

 40
0.0
 41
0.0
 42
0.0
 43
0.0
 44
0.0
 45
0.0
 46
0.0
 47
0.0
 48
0.0
 49
0.0
140
0.0
141
0.0
142
1.0
143
1.0
 70
  1712
 72
     0
 73
     0
 74
     0
  7

 75
     0
147
1.0
148
0.0
149
0.0
100
AcDbLayout
  1
Model
 70
     1
 71
     0
 10
0.0
 20
0.0
 11
12.0
 21
9.0
 12
0.0
 22
0.0
 32
0.0
 14
0.0
 24
0.0
 34
0.0
 15
0.0
 25
0.0
 35
0.0
146
0.0
 13
0.0
 23
0.0
 33
0.0
 16
1.0
 26
0.0
 36
0.0
 17
0.0
 27
1.0
 37
0.0
 76
     0
330
36D
331
372
  0
LAYOUT
  5
36C
102
{ACAD_XDICTIONARY
360
3DB
102
}
102
{ACAD_REACTORS
330
35F
102
}
330
35F
100
AcDbPlotSettings
  1

  2
DocuPrint 3000-2
  4

  6

 40
0.0
 41
0.0
 42
0.0
 43
0.0
 44
0.0
 45
0.0
 46
0.0
 47
0.0
 48
0.0
 49
0.0
140
0.0
141
0.0
142
1.0
143
1.0
 70
   688
 72
     0
 73
     0
 74
     5
  7

 75
    16
147
1.0
148
0.0
149
0.0
100
AcDbLayout
  1
レイアウト1
 70
     0
 71
     1
 10
0.0
 20
0.0
 11
12.0
 21
9.0
 12
0.0
 22
0.0
 32
0.0
 14
1.000000000000000E+20
 24
1.000000000000000E+20
 34
1.000000000000000E+20
 15
-1.000000000000000E+20
 25
-1.000000000000000E+20
 35
-1.000000000000000E+20
146
0.0
 13
0.0
 23
0.0
 33
0.0
 16
1.0
 26
0.0
 36
0.0
 17
0.0
 27
1.0
 37
0.0
 76
     0
330
369
  0
MATERIAL
  5
317
102
{ACAD_XDICTIONARY
360
318
102
}
102
{ACAD_REACTORS
330
30E
102
}
330
30E
100
AcDbMaterial
  1
ByBlock
 72
     0
 43
0.0208333333333333
 43
0.0
 43
0.0
 43
0.0
 43
0.0
 43
0.0208333333333333
 43
0.0
 43
0.0
 43
0.0
 43
0.0
 43
1.0
 43
0.0
 43
0.0
 43
0.0
 43
0.0
 43
1.0
 77
     0
 47
0.0208333333333333
 47
0.0
 47
0.0
 47
0.0
 47
0.0
 47
0.0208333333333333
 47
0.0
 47
0.0
 47
0.0
 47
0.0
 47
1.0
 47
0.0
 47
0.0
 47
0.0
 47
0.0
 47
1.0
171
     0
 49
0.0208333333333333
 49
0.0
 49
0.0
 49
0.0
 49
0.0
 49
0.0208333333333333
 49
0.0
 49
0.0
 49
0.0
 49
0.0
 49
1.0
 49
0.0
 49
0.0
 49
0.0
 49
0.0
 49
1.0
175
     0
142
0.0208333333333333
142
0.0
142
0.0
142
0.0
142
0.0
142
0.0208333333333333
142
0.0
142
0.0
142
0.0
142
0.0
142
1.0
142
0.0
142
0.0
142
0.0
142
0.0
142
1.0
179
     0
144
0.0208333333333333
144
0.0
144
0.0
144
0.0
144
0.0
144
0.0208333333333333
144
0.0
144
0.0
144
0.0
144
0.0
144
1.0
144
0.0
144
0.0
144
0.0
144
0.0
144
1.0
147
0.0208333333333333
147
0.0
147
0.0
147
0.0
147
0.0
147
0.0208333333333333
147
0.0
147
0.0
147
0.0
147
0.0
147
1.0
147
0.0
147
0.0
147
0.0
147
0.0
147
1.0
  0
MATERIAL
  5
30F
102
{ACAD_XDICTIONARY
360
310
102
}
102
{ACAD_REACTORS
330
30E
102
}
330
30E
100
AcDbMaterial
  1
ByLayer
 72
     0
 43
0.0208333333333333
 43
0.0
 43
0.0
 43
0.0
 43
0.0
 43
0.0208333333333333
 43
0.0
 43
0.0
 43
0.0
 43
0.0
 43
1.0
 43
0.0
 43
0.0
 43
0.0
 43
0.0
 43
1.0
 77
     0
 47
0.0208333333333333
 47
0.0
 47
0.0
 47
0.0
 47
0.0
 47
0.0208333333333333
 47
0.0
 47
0.0
 47
0.0
 47
0.0
 47
1.0
 47
0.0
 47
0.0
 47
0.0
 47
0.0
 47
1.0
171
     0
 49
0.0208333333333333
 49
0.0
 49
0.0
 49
0.0
 49
0.0
 49
0.0208333333333333
 49
0.0
 49
0.0
 49
0.0
 49
0.0
 49
1.0
 49
0.0
 49
0.0
 49
0.0
 49
0.0
 49
1.0
175
     0
142
0.0208333333333333
142
0.0
142
0.0
142
0.0
142
0.0
142
0.0208333333333333
142
0.0
142
0.0
142
0.0
142
0.0
142
1.0
142
0.0
142
0.0
142
0.0
142
0.0
142
1.0
179
     0
144
0.0208333333333333
144
0.0
144
0.0
144
0.0
144
0.0
144
0.0208333333333333
144
0.0
144
0.0
144
0.0
144
0.0
144
1.0
144
0.0
144
0.0
144
0.0
144
0.0
144
1.0
147
0.0208333333333333
147
0.0
147
0.0
147
0.0
147
0.0
147
0.0208333333333333
147
0.0
147
0.0
147
0.0
147
0.0
147
1.0
147
0.0
147
0.0
147
0.0
147
0.0
147
1.0
  0
MATERIAL
  5
31F
102
{ACAD_XDICTIONARY
360
320
102
}
102
{ACAD_REACTORS
330
30E
102
}
330
30E
100
AcDbMaterial
  1
Global
 72
     0
 43
0.0208333333333333
 43
0.0
 43
0.0
 43
0.0
 43
0.0
 43
0.0208333333333333
 43
0.0
 43
0.0
 43
0.0
 43
0.0
 43
1.0
 43
0.0
 43
0.0
 43
0.0
 43
0.0
 43
1.0
 77
     0
 47
0.0208333333333333
 47
0.0
 47
0.0
 47
0.0
 47
0.0
 47
0.0208333333333333
 47
0.0
 47
0.0
 47
0.0
 47
0.0
 47
1.0
 47
0.0
 47
0.0
 47
0.0
 47
0.0
 47
1.0
171
     0
 49
0.0208333333333333
 49
0.0
 49
0.0
 49
0.0
 49
0.0
 49
0.0208333333333333
 49
0.0
 49
0.0
 49
0.0
 49
0.0
 49
1.0
 49
0.0
 49
0.0
 49
0.0
 49
0.0
 49
1.0
175
     0
142
0.0208333333333333
142
0.0
142
0.0
142
0.0
142
0.0
142
0.0208333333333333
142
0.0
142
0.0
142
0.0
142
0.0
142
1.0
142
0.0
142
0.0
142
0.0
142
0.0
142
1.0
179
     0
144
0.0208333333333333
144
0.0
144
0.0
144
0.0
144
0.0
144
0.0208333333333333
144
0.0
144
0.0
144
0.0
144
0.0
144
1.0
144
0.0
144
0.0
144
0.0
144
0.0
144
1.0
147
0.0208333333333333
147
0.0
147
0.0
147
0.0
147
0.0
147
0.0208333333333333
147
0.0
147
0.0
147
0.0
147
0.0
147
1.0
147
0.0
147
0.0
147
0.0
147
0.0
147
1.0
  0
MLEADERSTYLE
  5
364
102
{ACAD_REACTORS
330
363
102
}
330
363
100
AcDbMLeaderStyle
170
     2
171
     1
172
     0
 90
        2
 40
0.0
 41
0.0
173
     1
 91
-1056964608
340
358
 92
       -2
290
     1
 42
0.09
291
     1
 43
0.36
  3
Standard
 44
0.18
300

342
353
174
     1
178
     6
175
     1
176
     0
 93
-1056964608
 45
0.18
292
     0
297
     0
 46
0.18
 94
-1056964608
 47
1.0
 49
1.0
140
1.0
293
     1
141
0.0
294
     1
177
     0
142
1.0
295
     0
296
     0
143
0.125
1001
ACAD_MLEADERVER
1070
     2
  0
MLINESTYLE
  5
35D
102
{ACAD_REACTORS
330
35C
102
}
330
35C
100
AcDbMlineStyle
  2
STANDARD
 70
     0
  3

 62
   256
 51
90.0
 52
90.0
 71
     2
 49
0.5
 62
   256
  6
BYLAYER
 49
-0.5
 62
   256
  6
BYLAYER
  0
ACDBPLACEHOLDER
  5
30D
102
{ACAD_REACTORS
330
30C
102
}
330
30C
  0
SCALE
  5
341
102
{ACAD_REACTORS
330
340
102
}
330
340
100
AcDbScale
 70
     0
300
1:1
140
1.0
141
1.0
290
     1
  0
SCALE
  5
342
102
{ACAD_REACTORS
330
340
102
}
330
340
100
AcDbScale
 70
     0
300
1/128" = 1'-0"
140
0.0078125
141
12.0
290
     0
  0
SCALE
  5
343
102
{ACAD_REACTORS
330
340
102
}
330
340
100
AcDbScale
 70
     0
300
1/64" = 1'-0"
140
0.015625
141
12.0
290
     0
  0
SCALE
  5
344
102
{ACAD_REACTORS
330
340
102
}
330
340
100
AcDbScale
 70
     0
300
1/32" = 1'-0"
140
0.03125
141
12.0
290
     0
  0
SCALE
  5
345
102
{ACAD_REACTORS
330
340
102
}
330
340
100
AcDbScale
 70
     0
300
1/16" = 1'-0"
140
0.0625
141
12.0
290
     0
  0
SCALE
  5
346
102
{ACAD_REACTORS
330
340
102
}
330
340
100
AcDbScale
 70
     0
300
3/32" = 1'-0"
140
0.09375
141
12.0
290
     0
  0
SCALE
  5
347
102
{ACAD_REACTORS
330
340
102
}
330
340
100
AcDbScale
 70
     0
300
1/8" = 1'-0"
140
0.125
141
12.0
290
     0
  0
SCALE
  5
348
102
{ACAD_REACTORS
330
340
102
}
330
340
100
AcDbScale
 70
     0
300
3/16" = 1'-0"
140
0.1875
141
12.0
290
     0
  0
SCALE
  5
349
102
{ACAD_REACTORS
330
340
102
}
330
340
100
AcDbScale
 70
     0
300
1/4" = 1'-0"
140
0.25
141
12.0
290
     0
  0
SCALE
  5
34A
102
{ACAD_REACTORS
330
340
102
}
330
340
100
AcDbScale
 70
     0
300
3/8" = 1'-0"
140
0.375
141
12.0
290
     0
  0
SCALE
  5
34B
102
{ACAD_REACTORS
330
340
102
}
330
340
100
AcDbScale
 70
     0
300
1/2" = 1'-0"
140
0.5
141
12.0
290
     0
  0
SCALE
  5
34C
102
{ACAD_REACTORS
330
340
102
}
330
340
100
AcDbScale
 70
     0
300
3/4" = 1'-0"
140
0.75
141
12.0
290
     0
  0
SCALE
  5
34D
102
{ACAD_REACTORS
330
340
102
}
330
340
100
AcDbScale
 70
     0
300
1" = 1'-0"
140
1.0
141
12.0
290
     0
  0
SCALE
  5
34E
102
{ACAD_REACTORS
330
340
102
}
330
340
100
AcDbScale
 70
     0
300
1-1/2" = 1'-0"
140
1.5
141
12.0
290
     0
  0
SCALE
  5
34F
102
{ACAD_REACTORS
330
340
102
}
330
340
100
AcDbScale
 70
     0
300
3" = 1'-0"
140
3.0
141
12.0
290
     0
  0
SCALE
  5
350
102
{ACAD_REACTORS
330
340
102
}
330
340
100
AcDbScale
 70
     0
300
6" = 1'-0"
140
6.0
141
12.0
290
     0
  0
SCALE
  5
351
102
{ACAD_REACTORS
330
340
102
}
330
340
100
AcDbScale
 70
     0
300
1'-0" = 1'-0"
140
12.0
141
12.0
290
     0
  0
ACDBSECTIONVIEWSTYLE
  5
366
102
{ACAD_XDICTIONARY
360
3D7
102
}
102
{ACAD_REACTORS
330
365
102
}
330
365
100
AcDbModelDocViewStyle
 70
     0
  3
Imperial24
290
     0
100
AcDbSectionViewStyle
 70
     0
 71
     0
 90
       78
 71
     1
340
353
 40
0.24
340
0
340
0
 40
0.24
300
I, O, Q, S, X, Z
 40
0.48
 90
        3
 40
0.18
 90
        1
 71
     2
340
35A
 90
       25
340
35A
 90
       50
 40
0.24
 40
0.0
 40
0.24
 71
     3
340
353
 40
0.24
 90
        1
 40
0.75
 90
        1
300
%<\AcVar ViewType \f "%tc1">% %<\AcVar ViewSectionStartId>%-%<\AcVar ViewSectionEndId>%\PSCALE %<\AcVar ViewScale \f "%sn">%
 71
     4
300
ANSI31
 40
1.0
 90
        0
290
     0
290
     0
 90
        6
 40
0.0
 40
1.570796326794896
 40
0.2617993877991494
 40
1.308996938995747
 40
-0.2617993877991494
 40
1.832595714594046
  0
TABLESTYLE
  5
362
102
{ACAD_XDICTIONARY
360
39E
102
}
102
{ACAD_REACTORS
330
361
102
}
330
361
100
AcDbTableStyle
  3
Standard
 70
     0
 71
     0
 40
0.06
 41
0.06
280
     0
281
     0
  7
STANDARD
140
0.18
170
     2
 62
     0
 63
     7
283
     0
274
    -2
284
     1
 64
     0
275
    -2
285
     1
 65
     0
276
    -2
286
     1
 66
     0
277
    -2
287
     1
 67
     0
278
    -2
288
     1
 68
     0
279
    -2
289
     1
 69
     0
  7
STANDARD
140
0.25
170
     5
 62
     0
 63
     7
283
     0
274
    -2
284
     1
 64
     0
275
    -2
285
     1
 65
     0
276
    -2
286
     1
 66
     0
277
    -2
287
     1
 67
     0
278
    -2
288
     1
 68
     0
279
    -2
289
     1
 69
     0
  7
STANDARD
140
0.18
170
     5
 62
     0
 63
     7
283
     0
274
    -2
284
     1
 64
     0
275
    -2
285
     1
 65
     0
276
    -2
286
     1
 66
     0
277
    -2
287
     1
 67
     0
278
    -2
288
     1
 68
     0
279
    -2
289
     1
 69
     0
  0
VISUALSTYLE
  5
32D
102
{ACAD_XDICTIONARY
360
3AF
102
}
102
{ACAD_REACTORS
330
327
102
}
330
327
100
AcDbVisualStyle
  2
2dWireframe
 70
     4
 71
     0
 72
     2
 73
     0
 90
        0
 40
-0.6
 41
-30.0
 62
     5
 63
     7
 74
     1
 91
        4
 64
     7
 65
   257
 75
     1
175
     1
 42
1.0
 92
        0
 66
   257
 43
1.0
 76
     1
 77
     6
 78
     2
 67
     7
 79
     5
170
     0
171
     0
290
     0
174
     0
 93
        1
 44
0.0
173
     0
291
     0
 45
0.0
1001
ACAD
1000
AcDbSavedByObjectVersion
1070
     0
  0
VISUALSTYLE
  5
32C
102
{ACAD_XDICTIONARY
360
3AD
102
}
102
{ACAD_REACTORS
330
327
102
}
330
327
100
AcDbVisualStyle
  2
Basic
 70
     7
 71
     1
 72
     0
 73
     1
 90
        0
 40
-0.6
 41
-30.0
 62
     5
 63
     7
 74
     0
 91
        4
 64
     7
 65
   257
 75
     1
175
     1
 42
1.0
 92
        8
 66
     7
 43
1.0
 76
     1
 77
     6
 78
     2
 67
     7
 79
     5
170
     0
171
     0
290
     0
174
     0
 93
        1
 44
0.0
173
     0
291
     1
 45
0.0
1001
ACAD
1000
AcDbSavedByObjectVersion
1070
     0
  0
VISUALSTYLE
  5
333
102
{ACAD_XDICTIONARY
360
3BB
102
}
102
{ACAD_REACTORS
330
327
102
}
330
327
100
AcDbVisualStyle
  2
Brighten
 70
    12
 71
     2
 72
     2
 73
     0
 90
        0
 40
-0.6
 41
-30.0
 62
     5
 63
     7
 74
     1
 91
        4
 64
     7
 65
   257
 75
     1
175
     1
 42
1.0
 92
        8
 66
     7
 43
1.0
 76
     1
 77
     6
 78
     2
 67
     7
 79
     5
170
     0
171
     0
290
     0
174
     0
 93
        1
 44
50.0
173
     0
291
     1
 45
0.0
1001
ACAD
1000
AcDbSavedByObjectVersion
1070
     0
  0
VISUALSTYLE
  5
337
102
{ACAD_XDICTIONARY
360
3C3
102
}
102
{ACAD_REACTORS
330
327
102
}
330
327
100
AcDbVisualStyle
  2
ColorChange
 70
    16
 71
     2
 72
     2
 73
     3
 90
        0
 40
-0.6
 41
-30.0
 62
     5
 63
     8
 74
     1
 91
        4
 64
     7
 65
   257
 75
     1
175
     1
 42
1.0
 92
        8
 66
     8
 43
1.0
 76
     1
 77
     6
 78
     2
 67
     7
 79
     5
170
     0
171
     0
290
     0
174
     0
 93
        1
 44
0.0
173
     0
291
     1
 45
0.0
1001
ACAD
1000
AcDbSavedByObjectVersion
1070
     0
  0
VISUALSTYLE
  5
330
102
{ACAD_XDICTIONARY
360
3B5
102
}
102
{ACAD_REACTORS
330
327
102
}
330
327
100
AcDbVisualStyle
  2
Conceptual
 70
     9
 71
     3
 72
     2
 73
     0
 90
        0
 40
-0.6
 41
-30.0
 62
     5
 63
     7
 74
     2
 91
        2
 64
     7
 65
   257
 75
     1
175
     1
 42
179.0
 92
        8
 66
     7
 43
1.0
 76
     1
 77
     6
 78
     2
 67
     7
 79
     3
170
     0
171
     0
290
     0
174
     0
 93
        1
 44
0.0
173
     0
291
     0
 45
0.0
1001
ACAD
1000
AcDbSavedByObjectVersion
1070
     0
  0
VISUALSTYLE
  5
332
102
{ACAD_XDICTIONARY
360
3B9
102
}
102
{ACAD_REACTORS
330
327
102
}
330
327
100
AcDbVisualStyle
  2
Dim
 70
    11
 71
     2
 72
     2
 73
     0
 90
        0
 40
-0.6
 41
-30.0
 62
     5
 63
     7
 74
     1
 91
        4
 64
     7
 65
   257
 75
     1
175
     1
 42
1.0
 92
        8
 66
     7
 43
1.0
 76
     1
 77
     6
 78
     2
 67
     7
 79
     5
170
     0
171
     0
290
     0
174
     0
 93
        1
 44
-50.0
173
     0
291
     1
 45
0.0
1001
ACAD
1000
AcDbSavedByObjectVersion
1070
     0
  0
VISUALSTYLE
  5
33F
102
{ACAD_XDICTIONARY
360
3D3
102
}
102
{ACAD_REACTORS
330
327
102
}
330
327
100
AcDbVisualStyle
  2
EdgeColorOff
 70
    22
 71
     2
 72
     2
 73
     0
 90
        0
 40
-0.6
 41
-30.0
 62
     5
 63
     7
 74
     1
 91
        4
 64
     7
 65
   257
 75
     1
175
     1
 42
1.0
 92
        8
 66
     7
 43
1.0
 76
     1
 77
     6
 78
     2
 67
     7
 79
     5
170
     0
171
     0
290
     0
174
     0
 93
        1
 44
0.0
173
     0
291
     1
 45
0.0
1001
ACAD
1000
AcDbSavedByObjectVersion
1070
     0
  0
VISUALSTYLE
  5
336
102
{ACAD_XDICTIONARY
360
3C1
102
}
102
{ACAD_REACTORS
330
327
102
}
330
327
100
AcDbVisualStyle
  2
Facepattern
 70
    15
 71
     2
 72
     2
 73
     0
 90
        0
 40
-0.6
 41
-30.0
 62
     5
 63
     7
 74
     1
 91
        4
 64
     7
 65
   257
 75
     1
175
     1
 42
1.0
 92
        8
 66
     7
 43
1.0
 76
     1
 77
     6
 78
     2
 67
     7
 79
     5
170
     0
171
     0
290
     0
174
     0
 93
        1
 44
0.0
173
     0
291
     1
 45
0.0
1001
ACAD
1000
AcDbSavedByObjectVersion
1070
     0
  0
VISUALSTYLE
  5
328
102
{ACAD_XDICTIONARY
360
3A5
102
}
102
{ACAD_REACTORS
330
327
102
}
330
327
100
AcDbVisualStyle
  2
Flat
 70
     0
 71
     2
 72
     1
 73
     1
 90
        2
 40
-0.6
 41
30.0
 62
     5
 63
     7
 74
     0
 91
        0
 64
     7
 65
   257
 75
     1
175
     1
 42
1.0
 92
        8
 66
     7
 43
1.0
 76
     1
 77
     6
 78
     2
 67
     7
 79
     5
170
     0
171
     0
290
     0
174
     0
 93
       13
 44
0.0
173
     0
291
     1
 45
0.0
1001
ACAD
1000
AcDbSavedByObjectVersion
1070
     0
  0
VISUALSTYLE
  5
329
102
{ACAD_XDICTIONARY
360
3A7
102
}
102
{ACAD_REACTORS
330
327
102
}
330
327
100
AcDbVisualStyle
  2
FlatWithEdges
 70
     1
 71
     2
 72
     1
 73
     1
 90
        2
 40
-0.6
 41
30.0
 62
     5
 63
     7
 74
     1
 91
        0
 64
     7
 65
   257
 75
     1
175
     1
 42
1.0
 92
        0
 66
   257
 43
1.0
 76
     1
 77
     6
 78
     2
 67
     7
 79
     5
170
     0
171
     0
290
     0
174
     0
 93
       13
 44
0.0
173
     0
291
     1
 45
0.0
1001
ACAD
1000
AcDbSavedByObjectVersion
1070
     0
  0
VISUALSTYLE
  5
32A
102
{ACAD_XDICTIONARY
360
3A9
102
}
102
{ACAD_REACTORS
330
327
102
}
330
327
100
AcDbVisualStyle
  2
Gouraud
 70
     2
 71
     2
 72
     2
 73
     1
 90
        2
 40
-0.6
 41
30.0
 62
     5
 63
     7
 74
     0
 91
        0
 64
     7
 65
   257
 75
     1
175
     1
 42
1.0
 92
        0
 66
     7
 43
1.0
 76
     1
 77
     6
 78
     2
 67
     7
 79
     5
170
     0
171
     0
290
     0
174
     0
 93
       13
 44
0.0
173
     0
291
     1
 45
0.0
1001
ACAD
1000
AcDbSavedByObjectVersion
1070
     0
  0
VISUALSTYLE
  5
32B
102
{ACAD_XDICTIONARY
360
3AB
102
}
102
{ACAD_REACTORS
330
327
102
}
330
327
100
AcDbVisualStyle
  2
GouraudWithEdges
 70
     3
 71
     2
 72
     2
 73
     1
 90
        2
 40
-0.6
 41
30.0
 62
     5
 63
     7
 74
     1
 91
        0
 64
     7
 65
   257
 75
     1
175
     1
 42
1.0
 92
        0
 66
   257
 43
1.0
 76
     1
 77
     6
 78
     2
 67
     7
 79
     5
170
     0
171
     0
290
     0
174
     0
 93
       13
 44
0.0
173
     0
291
     1
 45
0.0
1001
ACAD
1000
AcDbSavedByObjectVersion
1070
     0
  0
VISUALSTYLE
  5
32F
102
{ACAD_XDICTIONARY
360
3B3
102
}
102
{ACAD_REACTORS
330
327
102
}
330
327
100
AcDbVisualStyle
  2
Hidden
 70
     6
 71
     1
 72
     2
 73
     2
 90
        0
 40
-0.6
 41
-30.0
 62
     5
 63
     7
 74
     2
 91
        2
 64
     7
 65
   257
 75
     2
175
     1
 42
40.0
 92
        0
 66
   257
 43
1.0
 76
     1
 77
     6
 78
     2
 67
     7
 79
     3
170
     0
171
     0
290
     0
174
     0
 93
        1
 44
0.0
173
     0
291
     0
 45
0.0
1001
ACAD
1000
AcDbSavedByObjectVersion
1070
     0
  0
VISUALSTYLE
  5
33D
102
{ACAD_XDICTIONARY
360
3CF
102
}
102
{ACAD_REACTORS
330
327
102
}
330
327
100
AcDbVisualStyle
  2
JitterOff
 70
    20
 71
     2
 72
     2
 73
     0
 90
        0
 40
-0.6
 41
-30.0
 62
     5
 63
     7
 74
     1
 91
        4
 64
     7
 65
   257
 75
     1
175
     1
 42
1.0
 92
       10
 66
     7
 43
1.0
 76
     1
 77
     6
 78
     2
 67
     7
 79
     5
170
     0
171
     0
290
     0
174
     0
 93
        1
 44
0.0
173
     0
291
     1
 45
0.0
1001
ACAD
1000
AcDbSavedByObjectVersion
1070
     0
  0
VISUALSTYLE
  5
335
102
{ACAD_XDICTIONARY
360
3BF
102
}
102
{ACAD_REACTORS
330
327
102
}
330
327
100
AcDbVisualStyle
  2
Linepattern
 70
    14
 71
     2
 72
     2
 73
     0
 90
        0
 40
-0.6
 41
-30.0
 62
     5
 63
     7
 74
     1
 91
        4
 64
     7
 65
   257
 75
     7
175
     7
 42
1.0
 92
        8
 66
     7
 43
1.0
 76
     1
 77
     6
 78
     2
 67
     7
 79
     5
170
     0
171
     0
290
     0
174
     0
 93
        1
 44
0.0
173
     0
291
     1
 45
0.0
1001
ACAD
1000
AcDbSavedByObjectVersion
1070
     0
  0
VISUALSTYLE
  5
33E
102
{ACAD_XDICTIONARY
360
3D1
102
}
102
{ACAD_REACTORS
330
327
102
}
330
327
100
AcDbVisualStyle
  2
OverhangOff
 70
    21
 71
     2
 72
     2
 73
     0
 90
        0
 40
-0.6
 41
-30.0
 62
     5
 63
     7
 74
     1
 91
        4
 64
     7
 65
   257
 75
     1
175
     1
 42
1.0
 92
        9
 66
     7
 43
1.0
 76
     1
 77
     6
 78
     2
 67
     7
 79
     5
170
     0
171
     0
290
     0
174
     0
 93
        1
 44
0.0
173
     0
291
     1
 45
0.0
1001
ACAD
1000
AcDbSavedByObjectVersion
1070
     0
  0
VISUALSTYLE
  5
331
102
{ACAD_XDICTIONARY
360
3B7
102
}
102
{ACAD_REACTORS
330
327
102
}
330
327
100
AcDbVisualStyle
  2
Realistic
 70
     8
 71
     2
 72
     3
 73
     0
 90
        2
 40
-0.6
 41
30.0
 62
     5
 63
     7
 74
     0
 91
        0
 64
     7
 65
   257
 75
     1
175
     1
 42
1.0
 92
        8
 66
   257
 43
1.0
 76
     1
 77
     6
 78
     2
 67
     7
 79
     3
170
     0
171
     0
290
     0
174
     0
 93
       13
 44
0.0
173
     0
291
     0
 45
0.0
1001
ACAD
1000
AcDbSavedByObjectVersion
1070
     0
  0
VISUALSTYLE
  5
33C
102
{ACAD_XDICTIONARY
360
3CD
102
}
102
{ACAD_REACTORS
330
327
102
}
330
327
100
AcDbVisualStyle
  2
Shaded
 70
    27
 71
     2
 72
     2
 73
     1
 90
        2
 40
-0.6
 41
30.0
 62
     5
 63
     7
 74
     0
 91
        4
 64
     7
 65
   257
 75
     1
175
     1
 42
1.0
 92
        8
 66
   257
 43
1.0
 76
     1
 77
     6
 78
     2
 67
     8
 79
     3
170
     0
171
     0
290
     0
174
     0
 93
        5
 44
0.0
173
     0
291
     0
 45
0.0
1001
ACAD
1000
AcDbSavedByObjectVersion
1070
     0
  0
VISUALSTYLE
  5
33B
102
{ACAD_XDICTIONARY
360
3CB
102
}
102
{ACAD_REACTORS
330
327
102
}
330
327
100
AcDbVisualStyle
  2
Shaded with edges
 70
    26
 71
     2
 72
     2
 73
     1
 90
        2
 40
-0.6
 41
30.0
 62
     5
 63
     7
 74
     1
 91
        2
 64
     7
 65
   257
 75
     2
175
     1
 42
1.0
 92
        8
 66
   257
 43
1.0
 76
     1
 77
     6
 78
     2
 67
     7
 79
     3
170
     0
171
     0
290
     0
174
     0
 93
        5
 44
0.0
173
     0
291
     0
 45
0.0
1001
ACAD
1000
AcDbSavedByObjectVersion
1070
     0
  0
VISUALSTYLE
  5
338
102
{ACAD_XDICTIONARY
360
3C5
102
}
102
{ACAD_REACTORS
330
327
102
}
330
327
100
AcDbVisualStyle
  2
Shades of Gray
 70
    23
 71
     2
 72
     2
 73
     3
 90
        0
 40
-0.6
 41
-30.0
 62
     5
 63
     7
 74
     2
 91
        2
 64
     7
 65
     7
 75
     1
175
     1
 42
40.0
 92
        8
 66
     7
 43
1.0
 76
     1
 77
     6
 78
     2
 67
     7
 79
     3
170
     0
171
     0
290
     0
174
     0
 93
        1
 44
0.0
173
     0
291
     0
 45
0.0
1001
ACAD
1000
AcDbSavedByObjectVersion
1070
     0
  0
VISUALSTYLE
  5
339
102
{ACAD_XDICTIONARY
360
3C7
102
}
102
{ACAD_REACTORS
330
327
102
}
330
327
100
AcDbVisualStyle
  2
Sketchy
 70
    24
 71
     1
 72
     2
 73
     2
 90
        0
 40
-0.6
 41
-30.0
 62
     5
 63
     7
 74
     2
 91
        2
 64
     7
 65
     7
 75
     1
175
     1
 42
40.0
 92
       11
 66
     7
 43
1.0
 76
     1
 77
     6
 78
     2
 67
     7
 79
     6
170
     0
171
     0
290
     0
174
     0
 93
        1
 44
0.0
173
     0
291
     0
 45
0.0
1001
ACAD
1000
AcDbSavedByObjectVersion
1070
     0
  0
VISUALSTYLE
  5
334
102
{ACAD_XDICTIONARY
360
3BD
102
}
102
{ACAD_REACTORS
330
327
102
}
330
327
100
AcDbVisualStyle
  2
Thicken
 70
    13
 71
     2
 72
     2
 73
     0
 90
        0
 40
-0.6
 41
-30.0
 62
     5
 63
     7
 74
     1
 91
        4
 64
     7
 65
   257
 75
     1
175
     1
 42
1.0
 92
       12
 66
     7
 43
1.0
 76
     1
 77
     6
 78
     2
 67
     7
 79
     5
170
     0
171
     0
290
     0
174
     0
 93
        1
 44
0.0
173
     0
291
     1
 45
0.0
1001
ACAD
1000
AcDbSavedByObjectVersion
1070
     0
  0
VISUALSTYLE
  5
32E
102
{ACAD_XDICTIONARY
360
3B1
102
}
102
{ACAD_REACTORS
330
327
102
}
330
327
100
AcDbVisualStyle
  2
Wireframe
 70
     5
 71
     0
 72
     2
 73
     0
 90
        0
 40
-0.6
 41
-30.0
 62
     5
 63
     7
 74
     1
 91
        4
 64
     7
 65
   257
 75
     1
175
     1
 42
1.0
 92
        0
 66
   257
 43
1.0
 76
     1
 77
     6
 78
     2
 67
     7
 79
     3
170
     0
171
     0
290
     0
174
     0
 93
        1
 44
0.0
173
     0
291
     0
 45
0.0
1001
ACAD
1000
AcDbSavedByObjectVersion
1070
     0
  0
VISUALSTYLE
  5
33A
102
{ACAD_XDICTIONARY
360
3C9
102
}
102
{ACAD_REACTORS
330
327
102
}
330
327
100
AcDbVisualStyle
  2
X-Ray
 70
    25
 71
     2
 72
     2
 73
     1
 90
        1
 40
0.5
 41
-30.0
 62
     5
 63
     7
 74
     1
 91
        0
 64
     7
 65
   257
 75
     1
175
     1
 42
1.0
 92
        8
 66
     7
 43
1.0
 76
     1
 77
     6
 78
     2
 67
     7
 79
     3
170
     0
171
     0
290
     0
174
     0
 93
       13
 44
0.0
173
     0
291
     0
 45
0.0
1001
ACAD
1000
AcDbSavedByObjectVersion
1070
     0
  0
DICTIONARYVAR
  5
398
102
{ACAD_REACTORS
330
393
102
}
330
393
100
DictionaryVariables
280
     0
  1
1:1
  0
DICTIONARYVAR
  5
395
102
{ACAD_REACTORS
330
393
102
}
330
393
100
DictionaryVariables
280
     0
  1
STANDARD
  0
DICTIONARYVAR
  5
394
102
{ACAD_REACTORS
330
393
102
}
330
393
100
DictionaryVariables
280
     0
  1
STANDARD
  0
DICTIONARYVAR
  5
396
102
{ACAD_REACTORS
330
393
102
}
330
393
100
DictionaryVariables
280
     0
  1
Imperial24
  0
DICTIONARYVAR
  5
397
102
{ACAD_REACTORS
330
393
102
}
330
393
100
DictionaryVariables
280
     0
  1
Imperial24
  0
DICTIONARYVAR
  5
39B
102
{ACAD_REACTORS
330
393
102
}
330
393
100
DictionaryVariables
280
     0
  1
1
  0
DICTIONARYVAR
  5
39A
102
{ACAD_REACTORS
330
393
102
}
330
393
100
DictionaryVariables
280
     0
  1
0
  0
DICTIONARYVAR
  5
399
102
{ACAD_REACTORS
330
393
102
}
330
393
100
DictionaryVariables
280
     0
  1
127
  0
DICTIONARYVAR
  5
39C
102
{ACAD_REACTORS
330
393
102
}
330
393
100
DictionaryVariables
280
     0
  1
2
  0
DICTIONARY
  5
3D9
330
368
100
AcDbDictionary
280
     1
281
     1
  3
ACAD_XREC_ROUNDTRIP
360
3DA
  0
DICTIONARY
  5
3DD
330
370
100
AcDbDictionary
280
     1
281
     1
  3
ACAD_XREC_ROUNDTRIP
360
3DE
  0
DICTIONARY
  5
3DB
330
36C
100
AcDbDictionary
280
     1
281
     1
  3
ACAD_XREC_ROUNDTRIP
360
3DC
  0
DICTIONARY
  5
318
330
317
100
AcDbDictionary
280
     1
281
     1
  3
ACAD_XREC_ROUNDTRIP
360
3A3
  3
BUMPTILE
360
31A
  3
DIFFUSETILE
360
319
  3
OPACITYTILE
360
31D
  3
REFLECTIONTILE
360
31C
  3
REFRACTIONTILE
360
31E
  3
SPECULARTILE
360
31B
  0
DICTIONARY
  5
310
330
30F
100
AcDbDictionary
280
     1
281
     1
  3
ACAD_XREC_ROUNDTRIP
360
3A2
  3
BUMPTILE
360
312
  3
DIFFUSETILE
360
311
  3
OPACITYTILE
360
315
  3
REFLECTIONTILE
360
314
  3
REFRACTIONTILE
360
316
  3
SPECULARTILE
360
313
  0
DICTIONARY
  5
320
330
31F
100
AcDbDictionary
280
     1
281
     1
  3
ACAD_XREC_ROUNDTRIP
360
3A4
  3
BUMPTILE
360
322
  3
DIFFUSETILE
360
321
  3
OPACITYTILE
360
325
  3
REFLECTIONTILE
360
324
  3
REFRACTIONTILE
360
326
  3
SPECULARTILE
360
323
  0
DICTIONARY
  5
3D7
330
366
100
AcDbDictionary
280
     1
281
     1
  3
ACAD_XREC_ROUNDTRIP
360
3D8
  0
DICTIONARY
  5
39E
330
362
100
AcDbDictionary
280
     1
281
     1
  3
ACAD_ROUNDTRIP_2008_TABLESTYLE_CELLSTYLEMAP
360
39F
  3
ACAD_XREC_ROUNDTRIP
360
3D5
  0
DICTIONARY
  5
3AF
330
32D
100
AcDbDictionary
280
     1
281
     1
  3
ACAD_XREC_ROUNDTRIP
360
3B0
  0
DICTIONARY
  5
3AD
330
32C
100
AcDbDictionary
280
     1
281
     1
  3
ACAD_XREC_ROUNDTRIP
360
3AE
  0
DICTIONARY
  5
3BB
330
333
100
AcDbDictionary
280
     1
281
     1
  3
ACAD_XREC_ROUNDTRIP
360
3BC
  0
DICTIONARY
  5
3C3
330
337
100
AcDbDictionary
280
     1
281
     1
  3
ACAD_XREC_ROUNDTRIP
360
3C4
  0
DICTIONARY
  5
3B5
330
330
100
AcDbDictionary
280
     1
281
     1
  3
ACAD_XREC_ROUNDTRIP
360
3B6
  0
DICTIONARY
  5
3B9
330
332
100
AcDbDictionary
280
     1
281
     1
  3
ACAD_XREC_ROUNDTRIP
360
3BA
  0
DICTIONARY
  5
3D3
330
33F
100
AcDbDictionary
280
     1
281
     1
  3
ACAD_XREC_ROUNDTRIP
360
3D4
  0
DICTIONARY
  5
3C1
330
336
100
AcDbDictionary
280
     1
281
     1
  3
ACAD_XREC_ROUNDTRIP
360
3C2
  0
DICTIONARY
  5
3A5
330
328
100
AcDbDictionary
280
     1
281
     1
  3
ACAD_XREC_ROUNDTRIP
360
3A6
  0
DICTIONARY
  5
3A7
330
329
100
AcDbDictionary
280
     1
281
     1
  3
ACAD_XREC_ROUNDTRIP
360
3A8
  0
DICTIONARY
  5
3A9
330
32A
100
AcDbDictionary
280
     1
281
     1
  3
ACAD_XREC_ROUNDTRIP
360
3AA
  0
DICTIONARY
  5
3AB
330
32B
100
AcDbDictionary
280
     1
281
     1
  3
ACAD_XREC_ROUNDTRIP
360
3AC
  0
DICTIONARY
  5
3B3
330
32F
100
AcDbDictionary
280
     1
281
     1
  3
ACAD_XREC_ROUNDTRIP
360
3B4
  0
DICTIONARY
  5
3CF
330
33D
100
AcDbDictionary
280
     1
281
     1
  3
ACAD_XREC_ROUNDTRIP
360
3D0
  0
DICTIONARY
  5
3BF
330
335
100
AcDbDictionary
280
     1
281
     1
  3
ACAD_XREC_ROUNDTRIP
360
3C0
  0
DICTIONARY
  5
3D1
330
33E
100
AcDbDictionary
280
     1
281
     1
  3
ACAD_XREC_ROUNDTRIP
360
3D2
  0
DICTIONARY
  5
3B7
330
331
100
AcDbDictionary
280
     1
281
     1
  3
ACAD_XREC_ROUNDTRIP
360
3B8
  0
DICTIONARY
  5
3CD
330
33C
100
AcDbDictionary
280
     1
281
     1
  3
ACAD_XREC_ROUNDTRIP
360
3CE
  0
DICTIONARY
  5
3CB
330
33B
100
AcDbDictionary
280
     1
281
     1
  3
ACAD_XREC_ROUNDTRIP
360
3CC
  0
DICTIONARY
  5
3C5
330
338
100
AcDbDictionary
280
     1
281
     1
  3
ACAD_XREC_ROUNDTRIP
360
3C6
  0
DICTIONARY
  5
3C7
330
339
100
AcDbDictionary
280
     1
281
     1
  3
ACAD_XREC_ROUNDTRIP
360
3C8
  0
DICTIONARY
  5
3BD
330
334
100
AcDbDictionary
280
     1
281
     1
  3
ACAD_XREC_ROUNDTRIP
360
3BE
  0
DICTIONARY
  5
3B1
330
32E
100
AcDbDictionary
280
     1
281
     1
  3
ACAD_XREC_ROUNDTRIP
360
3B2
  0
DICTIONARY
  5
3C9
330
33A
100
AcDbDictionary
280
     1
281
     1
  3
ACAD_XREC_ROUNDTRIP
360
3CA
  0
XRECORD
  5
3DA
102
{ACAD_REACTORS
330
3D9
102
}
330
3D9
100
AcDbXrecord
280
     1
102
DISPLAYNAME
  1
Imperial24
102
FLAGS
 90
        0
  0
XRECORD
  5
3DE
102
{ACAD_REACTORS
330
3DD
102
}
330
3DD
100
AcDbXrecord
280
     1
102
SHADEPLOT
 70
     0
102
SHADEPLOTRESLEVEL
 70
     2
102
SHADEPLOTCUSTOMDPI
 70
   300
  0
XRECORD
  5
3DC
102
{ACAD_REACTORS
330
3DB
102
}
330
3DB
100
AcDbXrecord
280
     1
102
SHADEPLOT
 70
     0
102
SHADEPLOTRESLEVEL
 70
     2
102
SHADEPLOTCUSTOMDPI
 70
   300
  0
XRECORD
  5
3A3
102
{ACAD_REACTORS
330
318
102
}
330
318
100
AcDbXrecord
280
     1
102
MATERIAL
148
0.0
149
0.0
149
0.0
 93
        0
 94
      127
282
     0
 72
     0
 77
     0
171
     0
175
     0
179
     0
273
     0
  0
XRECORD
  5
31A
102
{ACAD_REACTORS
330
318
102
}
330
318
100
AcDbXrecord
280
     1
270
     1
271
     1
  0
XRECORD
  5
319
102
{ACAD_REACTORS
330
318
102
}
330
318
100
AcDbXrecord
280
     1
270
     1
271
     1
  0
XRECORD
  5
31D
102
{ACAD_REACTORS
330
318
102
}
330
318
100
AcDbXrecord
280
     1
270
     1
271
     1
  0
XRECORD
  5
31C
102
{ACAD_REACTORS
330
318
102
}
330
318
100
AcDbXrecord
280
     1
270
     1
271
     1
  0
XRECORD
  5
31E
102
{ACAD_REACTORS
330
318
102
}
330
318
100
AcDbXrecord
280
     1
270
     1
271
     1
  0
XRECORD
  5
31B
102
{ACAD_REACTORS
330
318
102
}
330
318
100
AcDbXrecord
280
     1
270
     1
271
     1
  0
XRECORD
  5
3A2
102
{ACAD_REACTORS
330
310
102
}
330
310
100
AcDbXrecord
280
     1
102
MATERIAL
148
0.0
149
0.0
149
0.0
 93
        0
 94
      127
282
     0
 72
     0
 77
     0
171
     0
175
     0
179
     0
273
     0
  0
XRECORD
  5
312
102
{ACAD_REACTORS
330
310
102
}
330
310
100
AcDbXrecord
280
     1
270
     1
271
     1
  0
XRECORD
  5
311
102
{ACAD_REACTORS
330
310
102
}
330
310
100
AcDbXrecord
280
     1
270
     1
271
     1
  0
XRECORD
  5
315
102
{ACAD_REACTORS
330
310
102
}
330
310
100
AcDbXrecord
280
     1
270
     1
271
     1
  0
XRECORD
  5
314
102
{ACAD_REACTORS
330
310
102
}
330
310
100
AcDbXrecord
280
     1
270
     1
271
     1
  0
XRECORD
  5
316
102
{ACAD_REACTORS
330
310
102
}
330
310
100
AcDbXrecord
280
     1
270
     1
271
     1
  0
XRECORD
  5
313
102
{ACAD_REACTORS
330
310
102
}
330
310
100
AcDbXrecord
280
     1
270
     1
271
     1
  0
XRECORD
  5
3A4
102
{ACAD_REACTORS
330
320
102
}
330
320
100
AcDbXrecord
280
     1
102
MATERIAL
148
0.0
149
0.0
149
0.0
 93
        0
 94
      127
282
     0
 72
     0
 77
     0
171
     0
175
     0
179
     0
273
     0
  0
XRECORD
  5
322
102
{ACAD_REACTORS
330
320
102
}
330
320
100
AcDbXrecord
280
     1
270
     1
271
     1
  0
XRECORD
  5
321
102
{ACAD_REACTORS
330
320
102
}
330
320
100
AcDbXrecord
280
     1
270
     1
271
     1
  0
XRECORD
  5
325
102
{ACAD_REACTORS
330
320
102
}
330
320
100
AcDbXrecord
280
     1
270
     1
271
     1
  0
XRECORD
  5
324
102
{ACAD_REACTORS
330
320
102
}
330
320
100
AcDbXrecord
280
     1
270
     1
271
     1
  0
XRECORD
  5
326
102
{ACAD_REACTORS
330
320
102
}
330
320
100
AcDbXrecord
280
     1
270
     1
271
     1
  0
XRECORD
  5
323
102
{ACAD_REACTORS
330
320
102
}
330
320
100
AcDbXrecord
280
     1
270
     1
271
     1
  0
XRECORD
  5
3D8
102
{ACAD_REACTORS
330
3D7
102
}
330
3D7
100
AcDbXrecord
280
     1
102
DISPLAYNAME
  1
Imperial24
102
FLAGS
 90
        0
  0
CELLSTYLEMAP
  5
39F
102
{ACAD_REACTORS
330
39E
102
}
330
39E
100
AcDbCellStyleMap
 90
        3
300
CELLSTYLE
  1
TABLEFORMAT_BEGIN
 90
        5
170
     1
 91
        0
 92
    32768
 62
   257
 93
        1
300
CONTENTFORMAT
  1
CONTENTFORMAT_BEGIN
 90
        0
 91
        0
 92
      512
 93
        0
300

 40
0.0
140
1.0
 94
        5
 62
     0
340
353
144
0.25
309
CONTENTFORMAT_END
171
     0
 94
        0
309
TABLEFORMAT_END
  1
CELLSTYLE_BEGIN
 90
        1
 91
        1
300
_TITLE
309
CELLSTYLE_END
300
CELLSTYLE
  1
TABLEFORMAT_BEGIN
 90
        5
170
     1
 91
        0
 92
        0
 62
   257
 93
        1
300
CONTENTFORMAT
  1
CONTENTFORMAT_BEGIN
 90
        0
 91
        0
 92
      512
 93
        0
300

 40
0.0
140
1.0
 94
        5
 62
     0
340
353
144
0.18
309
CONTENTFORMAT_END
171
     0
 94
        0
309
TABLEFORMAT_END
  1
CELLSTYLE_BEGIN
 90
        2
 91
        1
300
_HEADER
309
CELLSTYLE_END
300
CELLSTYLE
  1
TABLEFORMAT_BEGIN
 90
        5
170
     1
 91
        0
 92
        0
 62
   257
 93
        1
300
CONTENTFORMAT
  1
CONTENTFORMAT_BEGIN
 90
        0
 91
        0
 92
      512
 93
        0
300

 40
0.0
140
1.0
 94
        2
 62
     0
340
353
144
0.18
309
CONTENTFORMAT_END
171
     0
 94
        0
309
TABLEFORMAT_END
  1
CELLSTYLE_BEGIN
 90
        3
 91
        2
300
_DATA
309
CELLSTYLE_END
  0
XRECORD
  5
3D5
102
{ACAD_REACTORS
330
39E
102
}
330
39E
100
AcDbXrecord
280
     1
102
ACAD_ROUNDTRIP_PRE2007_TABLESTYLE
 90
      512
 91
        0
  1

 92
      512
 93
        0
  2

 94
      512
 95
        0
  3

  0
XRECORD
  5
3B0
102
{ACAD_REACTORS
330
3AF
102
}
330
3AF
100
AcDbXrecord
280
     1
102
RTVSPost2010Prop28
280
     1
102
RTVSPost2010PropOp28
 70
     1
102
RTVSPost2010Prop29
280
     1
102
RTVSPost2010PropOp29
 70
     1
102
RTVSPost2010Prop30
280
     0
102
RTVSPost2010PropOp30
 70
     1
102
RTVSPost2010Prop31
280
     0
102
RTVSPost2010PropOp31
 70
     1
102
RTVSPost2010Prop32
280
     0
102
RTVSPost2010PropOp32
 70
     1
102
RTVSPost2010Prop33
280
     0
102
RTVSPost2010PropOp33
 70
     1
102
RTVSPost2010Prop34
280
     0
102
RTVSPost2010PropOp34
 70
     1
102
RTVSPost2010Prop35
280
     0
102
RTVSPost2010PropOp35
 70
     1
102
RTVSPost2010Prop36
280
     0
102
RTVSPost2010PropOp36
 70
     1
102
RTVSPost2010Prop37
 90
       50
102
RTVSPost2010PropOp37
 70
     1
102
RTVSPost2010Prop38
140
0.0
102
RTVSPost2010PropOp38
 70
     1
102
RTVSPost2010Prop39
140
1.0
102
RTVSPost2010PropOp39
 70
     1
102
RTVSPost2010Prop40
 90
        0
102
RTVSPost2010PropOp40
 70
     1
102
RTVSPost2010Prop41ColorIndex
 90
       18
102
RTVSPost2010Prop41ColorRGB
 90
        0
102
RTVSPost2010PropOp41
 70
     1
102
RTVSPost2010Prop42
 90
       50
102
RTVSPost2010PropOp42
 70
     1
102
RTVSPost2010Prop43
 90
        3
102
RTVSPost2010PropOp43
 70
     1
102
RTVSPost2010Prop44ColorIndex
 90
        5
102
RTVSPost2010Prop44ColorRGB
 90
      255
102
RTVSPost2010PropOp44
 70
     1
102
RTVSPost2010Prop45
280
     0
102
RTVSPost2010PropOp45
 70
     1
102
RTVSPost2010Prop46
 90
       50
102
RTVSPost2010PropOp46
 70
     1
102
RTVSPost2010Prop47
 90
       50
102
RTVSPost2010PropOp47
 70
     1
102
RTVSPost2010Prop48
 90
       50
102
RTVSPost2010PropOp48
 70
     1
102
RTVSPost2010Prop49
280
     0
102
RTVSPost2010PropOp49
 70
     1
102
RTVSPost2010Prop50
 90
       50
102
RTVSPost2010PropOp50
 70
     1
102
RTVSPost2010Prop51ColorIndex
 90
      256
102
RTVSPost2010Prop51ColorRGB
 90
-16777216
102
RTVSPost2010PropOp51
 70
     0
102
RTVSPost2010Prop52
140
1.0
102
RTVSPost2010PropOp52
 70
     0
102
RTVSPost2010Prop53
 90
        2
102
RTVSPost2010PropOp53
 70
     1
102
RTVSPost2010Prop54
  1
strokes_ogs.tif
102
RTVSPost2010PropOp54
 70
     1
102
RTVSPost2010Prop55
280
     0
102
RTVSPost2010PropOp55
 70
     1
102
RTVSPost2010Prop56
140
1.0
102
RTVSPost2010PropOp56
 70
     1
102
RTVSPost2010Prop57
140
1.0
102
RTVSPost2010PropOp57
 70
     1
102
RTVSPropertyOp0
 70
     1
102
RTVSPropertyOp1
 70
     1
102
RTVSPropertyOp2
 70
     1
102
RTVSPropertyOp3
 70
     1
102
RTVSPropertyOp4
 70
     1
102
RTVSPropertyOp5
 70
     1
102
RTVSPropertyOp6
 70
     1
102
RTVSPropertyOp7
 70
     1
102
RTVSPropertyOp8
 70
     1
102
RTVSPropertyOp9
 70
     1
102
RTVSPropertyOp10
 70
     1
102
RTVSPropertyOp11
 70
     1
102
RTVSPropertyOp12
 70
     1
102
RTVSPropertyOp13
 70
     1
102
RTVSPropertyOp14
 70
     1
102
RTVSPropertyOp15
 70
     1
102
RTVSPropertyOp16
 70
     1
102
RTVSPropertyOp17
 70
     1
102
RTVSPropertyOp18
 70
     1
102
RTVSPropertyOp19
 70
     1
102
RTVSPropertyOp20
 70
     1
102
RTVSPropertyOp21
 70
     1
102
RTVSPropertyOp22
 70
     1
102
RTVSPropertyOp23
 70
     1
102
RTVSPropertyOp24
 70
     1
102
RTVSPropertyOp25
 70
     1
102
RTVSPropertyOp26
 70
     1
102
RTVSPropertyOp27
 70
     1
102
RTVSPropertyOp28
 70
     1
102
RTVSPropertyOp29
 70
     1
102
RTVSPropertyOp30
 70
     1
102
RTVSPropertyOp31
 70
     1
102
RTVSPropertyOp32
 70
     1
102
RTVSPropertyOp33
 70
     1
102
RTVSPropertyOp34
 70
     1
102
RTVSPropertyOp35
 70
     1
102
RTVSPropertyOp36
 70
     1
102
RTVSPropertyOp37
 70
     1
102
RTVSPropertyOp38
 70
     1
102
RTVSPropertyOp39
 70
     1
102
RTVSPropertyOp40
 70
     1
102
RTVSPropertyOp41
 70
     1
102
RTVSPropertyOp42
 70
     1
102
RTVSPropertyOp43
 70
     1
102
RTVSPropertyOp44
 70
     1
102
RTVSPropertyOp45
 70
     1
102
RTVSPropertyOp46
 70
     1
102
RTVSPropertyOp47
 70
     1
102
RTVSPropertyOp48
 70
     1
102
RTVSPropertyOp49
 70
     1
102
RTVSPropertyOp50
 70
     1
102
RTVSPropertyOp51
 70
     0
102
RTVSPropertyOp52
 70
     0
102
RTVSPropertyOp53
 70
     1
102
RTVSPropertyOp54
 70
     1
102
RTVSPropertyOp55
 70
     1
102
RTVSPropertyOp56
 70
     1
102
RTVSPropertyOp57
 70
     1
102
RTVSPropertyOp58
 70
     1
102
RTVSPropertyOp59
 70
     1
102
RTVSPropertyOp60
 70
     1
102
RTVSPropertyOp61
 70
     1
102
RTVSPropertyOp62
 70
     1
  0
XRECORD
  5
3AE
102
{ACAD_REACTORS
330
3AD
102
}
330
3AD
100
AcDbXrecord
280
     1
102
RTVSPost2010Prop28
280
     0
102
RTVSPost2010PropOp28
 70
     1
102
RTVSPost2010Prop29
280
     1
102
RTVSPost2010PropOp29
 70
     1
102
RTVSPost2010Prop30
280
     1
102
RTVSPost2010PropOp30
 70
     1
102
RTVSPost2010Prop31
280
     0
102
RTVSPost2010PropOp31
 70
     1
102
RTVSPost2010Prop32
280
     0
102
RTVSPost2010PropOp32
 70
     1
102
RTVSPost2010Prop33
280
     0
102
RTVSPost2010PropOp33
 70
     1
102
RTVSPost2010Prop34
280
     0
102
RTVSPost2010PropOp34
 70
     1
102
RTVSPost2010Prop35
280
     0
102
RTVSPost2010PropOp35
 70
     1
102
RTVSPost2010Prop36
280
     0
102
RTVSPost2010PropOp36
 70
     1
102
RTVSPost2010Prop37
 90
       50
102
RTVSPost2010PropOp37
 70
     1
102
RTVSPost2010Prop38
140
0.0
102
RTVSPost2010PropOp38
 70
     1
102
RTVSPost2010Prop39
140
1.0
102
RTVSPost2010PropOp39
 70
     1
102
RTVSPost2010Prop40
 90
        0
102
RTVSPost2010PropOp40
 70
     1
102
RTVSPost2010Prop41ColorIndex
 90
       18
102
RTVSPost2010Prop41ColorRGB
 90
        0
102
RTVSPost2010PropOp41
 70
     1
102
RTVSPost2010Prop42
 90
       50
102
RTVSPost2010PropOp42
 70
     1
102
RTVSPost2010Prop43
 90
        3
102
RTVSPost2010PropOp43
 70
     1
102
RTVSPost2010Prop44ColorIndex
 90
        5
102
RTVSPost2010Prop44ColorRGB
 90
      255
102
RTVSPost2010PropOp44
 70
     1
102
RTVSPost2010Prop45
280
     0
102
RTVSPost2010PropOp45
 70
     1
102
RTVSPost2010Prop46
 90
       50
102
RTVSPost2010PropOp46
 70
     1
102
RTVSPost2010Prop47
 90
       50
102
RTVSPost2010PropOp47
 70
     1
102
RTVSPost2010Prop48
 90
       50
102
RTVSPost2010PropOp48
 70
     1
102
RTVSPost2010Prop49
280
     0
102
RTVSPost2010PropOp49
 70
     1
102
RTVSPost2010Prop50
 90
       50
102
RTVSPost2010PropOp50
 70
     1
102
RTVSPost2010Prop51ColorIndex
 90
      256
102
RTVSPost2010Prop51ColorRGB
 90
-16777216
102
RTVSPost2010PropOp51
 70
     0
102
RTVSPost2010Prop52
140
1.0
102
RTVSPost2010PropOp52
 70
     0
102
RTVSPost2010Prop53
 90
        2
102
RTVSPost2010PropOp53
 70
     1
102
RTVSPost2010Prop54
  1
strokes_ogs.tif
102
RTVSPost2010PropOp54
 70
     1
102
RTVSPost2010Prop55
280
     0
102
RTVSPost2010PropOp55
 70
     1
102
RTVSPost2010Prop56
140
1.0
102
RTVSPost2010PropOp56
 70
     1
102
RTVSPost2010Prop57
140
1.0
102
RTVSPost2010PropOp57
 70
     1
102
RTVSPropertyOp0
 70
     1
102
RTVSPropertyOp1
 70
     1
102
RTVSPropertyOp2
 70
     1
102
RTVSPropertyOp3
 70
     1
102
RTVSPropertyOp4
 70
     1
102
RTVSPropertyOp5
 70
     1
102
RTVSPropertyOp6
 70
     1
102
RTVSPropertyOp7
 70
     1
102
RTVSPropertyOp8
 70
     1
102
RTVSPropertyOp9
 70
     1
102
RTVSPropertyOp10
 70
     1
102
RTVSPropertyOp11
 70
     1
102
RTVSPropertyOp12
 70
     1
102
RTVSPropertyOp13
 70
     1
102
RTVSPropertyOp14
 70
     1
102
RTVSPropertyOp15
 70
     1
102
RTVSPropertyOp16
 70
     1
102
RTVSPropertyOp17
 70
     1
102
RTVSPropertyOp18
 70
     1
102
RTVSPropertyOp19
 70
     1
102
RTVSPropertyOp20
 70
     1
102
RTVSPropertyOp21
 70
     1
102
RTVSPropertyOp22
 70
     1
102
RTVSPropertyOp23
 70
     1
102
RTVSPropertyOp24
 70
     1
102
RTVSPropertyOp25
 70
     1
102
RTVSPropertyOp26
 70
     1
102
RTVSPropertyOp27
 70
     1
102
RTVSPropertyOp28
 70
     1
102
RTVSPropertyOp29
 70
     1
102
RTVSPropertyOp30
 70
     1
102
RTVSPropertyOp31
 70
     1
102
RTVSPropertyOp32
 70
     1
102
RTVSPropertyOp33
 70
     1
102
RTVSPropertyOp34
 70
     1
102
RTVSPropertyOp35
 70
     1
102
RTVSPropertyOp36
 70
     1
102
RTVSPropertyOp37
 70
     1
102
RTVSPropertyOp38
 70
     1
102
RTVSPropertyOp39
 70
     1
102
RTVSPropertyOp40
 70
     1
102
RTVSPropertyOp41
 70
     1
102
RTVSPropertyOp42
 70
     1
102
RTVSPropertyOp43
 70
     1
102
RTVSPropertyOp44
 70
     1
102
RTVSPropertyOp45
 70
     1
102
RTVSPropertyOp46
 70
     1
102
RTVSPropertyOp47
 70
     1
102
RTVSPropertyOp48
 70
     1
102
RTVSPropertyOp49
 70
     1
102
RTVSPropertyOp50
 70
     1
102
RTVSPropertyOp51
 70
     0
102
RTVSPropertyOp52
 70
     0
102
RTVSPropertyOp53
 70
     1
102
RTVSPropertyOp54
 70
     1
102
RTVSPropertyOp55
 70
     1
102
RTVSPropertyOp56
 70
     1
102
RTVSPropertyOp57
 70
     1
102
RTVSPropertyOp58
 70
     1
102
RTVSPropertyOp59
 70
     1
102
RTVSPropertyOp60
 70
     1
102
RTVSPropertyOp61
 70
     1
102
RTVSPropertyOp62
 70
     1
  0
XRECORD
  5
3BC
102
{ACAD_REACTORS
330
3BB
102
}
330
3BB
100
AcDbXrecord
280
     1
102
RTVSPost2010Prop28
280
     0
102
RTVSPost2010PropOp28
 70
     1
102
RTVSPost2010Prop29
280
     1
102
RTVSPost2010PropOp29
 70
     1
102
RTVSPost2010Prop30
280
     1
102
RTVSPost2010PropOp30
 70
     1
102
RTVSPost2010Prop31
280
     0
102
RTVSPost2010PropOp31
 70
     1
102
RTVSPost2010Prop32
280
     0
102
RTVSPost2010PropOp32
 70
     1
102
RTVSPost2010Prop33
280
     0
102
RTVSPost2010PropOp33
 70
     1
102
RTVSPost2010Prop34
280
     0
102
RTVSPost2010PropOp34
 70
     1
102
RTVSPost2010Prop35
280
     0
102
RTVSPost2010PropOp35
 70
     1
102
RTVSPost2010Prop36
280
     0
102
RTVSPost2010PropOp36
 70
     1
102
RTVSPost2010Prop37
 90
       50
102
RTVSPost2010PropOp37
 70
     1
102
RTVSPost2010Prop38
140
0.0
102
RTVSPost2010PropOp38
 70
     1
102
RTVSPost2010Prop39
140
1.0
102
RTVSPost2010PropOp39
 70
     1
102
RTVSPost2010Prop40
 90
        0
102
RTVSPost2010PropOp40
 70
     1
102
RTVSPost2010Prop41ColorIndex
 90
       18
102
RTVSPost2010Prop41ColorRGB
 90
        0
102
RTVSPost2010PropOp41
 70
     1
102
RTVSPost2010Prop42
 90
       50
102
RTVSPost2010PropOp42
 70
     1
102
RTVSPost2010Prop43
 90
        3
102
RTVSPost2010PropOp43
 70
     1
102
RTVSPost2010Prop44ColorIndex
 90
        5
102
RTVSPost2010Prop44ColorRGB
 90
      255
102
RTVSPost2010PropOp44
 70
     1
102
RTVSPost2010Prop45
280
     0
102
RTVSPost2010PropOp45
 70
     1
102
RTVSPost2010Prop46
 90
       50
102
RTVSPost2010PropOp46
 70
     1
102
RTVSPost2010Prop47
 90
       50
102
RTVSPost2010PropOp47
 70
     1
102
RTVSPost2010Prop48
 90
       50
102
RTVSPost2010PropOp48
 70
     1
102
RTVSPost2010Prop49
280
     0
102
RTVSPost2010PropOp49
 70
     1
102
RTVSPost2010Prop50
 90
       50
102
RTVSPost2010PropOp50
 70
     1
102
RTVSPost2010Prop51ColorIndex
 90
      256
102
RTVSPost2010Prop51ColorRGB
 90
-16777216
102
RTVSPost2010PropOp51
 70
     0
102
RTVSPost2010Prop52
140
1.0
102
RTVSPost2010PropOp52
 70
     0
102
RTVSPost2010Prop53
 90
        2
102
RTVSPost2010PropOp53
 70
     1
102
RTVSPost2010Prop54
  1
strokes_ogs.tif
102
RTVSPost2010PropOp54
 70
     1
102
RTVSPost2010Prop55
280
     0
102
RTVSPost2010PropOp55
 70
     1
102
RTVSPost2010Prop56
140
1.0
102
RTVSPost2010PropOp56
 70
     1
102
RTVSPost2010Prop57
140
1.0
102
RTVSPost2010PropOp57
 70
     1
102
RTVSPropertyOp0
 70
     1
102
RTVSPropertyOp1
 70
     1
102
RTVSPropertyOp2
 70
     1
102
RTVSPropertyOp3
 70
     1
102
RTVSPropertyOp4
 70
     1
102
RTVSPropertyOp5
 70
     1
102
RTVSPropertyOp6
 70
     1
102
RTVSPropertyOp7
 70
     1
102
RTVSPropertyOp8
 70
     1
102
RTVSPropertyOp9
 70
     1
102
RTVSPropertyOp10
 70
     1
102
RTVSPropertyOp11
 70
     1
102
RTVSPropertyOp12
 70
     1
102
RTVSPropertyOp13
 70
     1
102
RTVSPropertyOp14
 70
     1
102
RTVSPropertyOp15
 70
     1
102
RTVSPropertyOp16
 70
     1
102
RTVSPropertyOp17
 70
     1
102
RTVSPropertyOp18
 70
     1
102
RTVSPropertyOp19
 70
     1
102
RTVSPropertyOp20
 70
     1
102
RTVSPropertyOp21
 70
     1
102
RTVSPropertyOp22
 70
     1
102
RTVSPropertyOp23
 70
     1
102
RTVSPropertyOp24
 70
     1
102
RTVSPropertyOp25
 70
     1
102
RTVSPropertyOp26
 70
     1
102
RTVSPropertyOp27
 70
     1
102
RTVSPropertyOp28
 70
     1
102
RTVSPropertyOp29
 70
     1
102
RTVSPropertyOp30
 70
     1
102
RTVSPropertyOp31
 70
     1
102
RTVSPropertyOp32
 70
     1
102
RTVSPropertyOp33
 70
     1
102
RTVSPropertyOp34
 70
     1
102
RTVSPropertyOp35
 70
     1
102
RTVSPropertyOp36
 70
     1
102
RTVSPropertyOp37
 70
     1
102
RTVSPropertyOp38
 70
     1
102
RTVSPropertyOp39
 70
     1
102
RTVSPropertyOp40
 70
     1
102
RTVSPropertyOp41
 70
     1
102
RTVSPropertyOp42
 70
     1
102
RTVSPropertyOp43
 70
     1
102
RTVSPropertyOp44
 70
     1
102
RTVSPropertyOp45
 70
     1
102
RTVSPropertyOp46
 70
     1
102
RTVSPropertyOp47
 70
     1
102
RTVSPropertyOp48
 70
     1
102
RTVSPropertyOp49
 70
     1
102
RTVSPropertyOp50
 70
     1
102
RTVSPropertyOp51
 70
     0
102
RTVSPropertyOp52
 70
     0
102
RTVSPropertyOp53
 70
     1
102
RTVSPropertyOp54
 70
     1
102
RTVSPropertyOp55
 70
     1
102
RTVSPropertyOp56
 70
     1
102
RTVSPropertyOp57
 70
     1
102
RTVSPropertyOp58
 70
     1
102
RTVSPropertyOp59
 70
     1
102
RTVSPropertyOp60
 70
     1
102
RTVSPropertyOp61
 70
     1
102
RTVSPropertyOp62
 70
     1
  0
XRECORD
  5
3C4
102
{ACAD_REACTORS
330
3C3
102
}
330
3C3
100
AcDbXrecord
280
     1
102
RTVSPost2010Prop28
280
     0
102
RTVSPost2010PropOp28
 70
     1
102
RTVSPost2010Prop29
280
     1
102
RTVSPost2010PropOp29
 70
     1
102
RTVSPost2010Prop30
280
     1
102
RTVSPost2010PropOp30
 70
     1
102
RTVSPost2010Prop31
280
     0
102
RTVSPost2010PropOp31
 70
     1
102
RTVSPost2010Prop32
280
     0
102
RTVSPost2010PropOp32
 70
     1
102
RTVSPost2010Prop33
280
     0
102
RTVSPost2010PropOp33
 70
     1
102
RTVSPost2010Prop34
280
     0
102
RTVSPost2010PropOp34
 70
     1
102
RTVSPost2010Prop35
280
     0
102
RTVSPost2010PropOp35
 70
     1
102
RTVSPost2010Prop36
280
     0
102
RTVSPost2010PropOp36
 70
     1
102
RTVSPost2010Prop37
 90
       50
102
RTVSPost2010PropOp37
 70
     1
102
RTVSPost2010Prop38
140
0.0
102
RTVSPost2010PropOp38
 70
     1
102
RTVSPost2010Prop39
140
1.0
102
RTVSPost2010PropOp39
 70
     1
102
RTVSPost2010Prop40
 90
        0
102
RTVSPost2010PropOp40
 70
     1
102
RTVSPost2010Prop41ColorIndex
 90
       18
102
RTVSPost2010Prop41ColorRGB
 90
        0
102
RTVSPost2010PropOp41
 70
     1
102
RTVSPost2010Prop42
 90
       50
102
RTVSPost2010PropOp42
 70
     1
102
RTVSPost2010Prop43
 90
        3
102
RTVSPost2010PropOp43
 70
     1
102
RTVSPost2010Prop44ColorIndex
 90
        5
102
RTVSPost2010Prop44ColorRGB
 90
      255
102
RTVSPost2010PropOp44
 70
     1
102
RTVSPost2010Prop45
280
     0
102
RTVSPost2010PropOp45
 70
     1
102
RTVSPost2010Prop46
 90
       50
102
RTVSPost2010PropOp46
 70
     1
102
RTVSPost2010Prop47
 90
       50
102
RTVSPost2010PropOp47
 70
     1
102
RTVSPost2010Prop48
 90
       50
102
RTVSPost2010PropOp48
 70
     1
102
RTVSPost2010Prop49
280
     0
102
RTVSPost2010PropOp49
 70
     1
102
RTVSPost2010Prop50
 90
       50
102
RTVSPost2010PropOp50
 70
     1
102
RTVSPost2010Prop51ColorIndex
 90
      256
102
RTVSPost2010Prop51ColorRGB
 90
-16777216
102
RTVSPost2010PropOp51
 70
     0
102
RTVSPost2010Prop52
140
1.0
102
RTVSPost2010PropOp52
 70
     0
102
RTVSPost2010Prop53
 90
        2
102
RTVSPost2010PropOp53
 70
     1
102
RTVSPost2010Prop54
  1
strokes_ogs.tif
102
RTVSPost2010PropOp54
 70
     1
102
RTVSPost2010Prop55
280
     0
102
RTVSPost2010PropOp55
 70
     1
102
RTVSPost2010Prop56
140
1.0
102
RTVSPost2010PropOp56
 70
     1
102
RTVSPost2010Prop57
140
1.0
102
RTVSPost2010PropOp57
 70
     1
102
RTVSPropertyOp0
 70
     1
102
RTVSPropertyOp1
 70
     1
102
RTVSPropertyOp2
 70
     1
102
RTVSPropertyOp3
 70
     1
102
RTVSPropertyOp4
 70
     1
102
RTVSPropertyOp5
 70
     1
102
RTVSPropertyOp6
 70
     1
102
RTVSPropertyOp7
 70
     1
102
RTVSPropertyOp8
 70
     1
102
RTVSPropertyOp9
 70
     1
102
RTVSPropertyOp10
 70
     1
102
RTVSPropertyOp11
 70
     1
102
RTVSPropertyOp12
 70
     1
102
RTVSPropertyOp13
 70
     1
102
RTVSPropertyOp14
 70
     1
102
RTVSPropertyOp15
 70
     1
102
RTVSPropertyOp16
 70
     1
102
RTVSPropertyOp17
 70
     1
102
RTVSPropertyOp18
 70
     1
102
RTVSPropertyOp19
 70
     1
102
RTVSPropertyOp20
 70
     1
102
RTVSPropertyOp21
 70
     1
102
RTVSPropertyOp22
 70
     1
102
RTVSPropertyOp23
 70
     1
102
RTVSPropertyOp24
 70
     1
102
RTVSPropertyOp25
 70
     1
102
RTVSPropertyOp26
 70
     1
102
RTVSPropertyOp27
 70
     1
102
RTVSPropertyOp28
 70
     1
102
RTVSPropertyOp29
 70
     1
102
RTVSPropertyOp30
 70
     1
102
RTVSPropertyOp31
 70
     1
102
RTVSPropertyOp32
 70
     1
102
RTVSPropertyOp33
 70
     1
102
RTVSPropertyOp34
 70
     1
102
RTVSPropertyOp35
 70
     1
102
RTVSPropertyOp36
 70
     1
102
RTVSPropertyOp37
 70
     1
102
RTVSPropertyOp38
 70
     1
102
RTVSPropertyOp39
 70
     1
102
RTVSPropertyOp40
 70
     1
102
RTVSPropertyOp41
 70
     1
102
RTVSPropertyOp42
 70
     1
102
RTVSPropertyOp43
 70
     1
102
RTVSPropertyOp44
 70
     1
102
RTVSPropertyOp45
 70
     1
102
RTVSPropertyOp46
 70
     1
102
RTVSPropertyOp47
 70
     1
102
RTVSPropertyOp48
 70
     1
102
RTVSPropertyOp49
 70
     1
102
RTVSPropertyOp50
 70
     1
102
RTVSPropertyOp51
 70
     0
102
RTVSPropertyOp52
 70
     0
102
RTVSPropertyOp53
 70
     1
102
RTVSPropertyOp54
 70
     1
102
RTVSPropertyOp55
 70
     1
102
RTVSPropertyOp56
 70
     1
102
RTVSPropertyOp57
 70
     1
102
RTVSPropertyOp58
 70
     1
102
RTVSPropertyOp59
 70
     1
102
RTVSPropertyOp60
 70
     1
102
RTVSPropertyOp61
 70
     1
102
RTVSPropertyOp62
 70
     1
  0
XRECORD
  5
3B6
102
{ACAD_REACTORS
330
3B5
102
}
330
3B5
100
AcDbXrecord
280
     1
102
RTVSPost2010Prop28
280
     0
102
RTVSPost2010PropOp28
 70
     1
102
RTVSPost2010Prop29
280
     1
102
RTVSPost2010PropOp29
 70
     1
102
RTVSPost2010Prop30
280
     1
102
RTVSPost2010PropOp30
 70
     1
102
RTVSPost2010Prop31
280
     0
102
RTVSPost2010PropOp31
 70
     1
102
RTVSPost2010Prop32
280
     0
102
RTVSPost2010PropOp32
 70
     1
102
RTVSPost2010Prop33
280
     0
102
RTVSPost2010PropOp33
 70
     1
102
RTVSPost2010Prop34
280
     0
102
RTVSPost2010PropOp34
 70
     1
102
RTVSPost2010Prop35
280
     0
102
RTVSPost2010PropOp35
 70
     1
102
RTVSPost2010Prop36
280
     0
102
RTVSPost2010PropOp36
 70
     1
102
RTVSPost2010Prop37
 90
       50
102
RTVSPost2010PropOp37
 70
     1
102
RTVSPost2010Prop38
140
0.0
102
RTVSPost2010PropOp38
 70
     1
102
RTVSPost2010Prop39
140
1.0
102
RTVSPost2010PropOp39
 70
     1
102
RTVSPost2010Prop40
 90
        0
102
RTVSPost2010PropOp40
 70
     1
102
RTVSPost2010Prop41ColorIndex
 90
       18
102
RTVSPost2010Prop41ColorRGB
 90
        0
102
RTVSPost2010PropOp41
 70
     1
102
RTVSPost2010Prop42
 90
       50
102
RTVSPost2010PropOp42
 70
     1
102
RTVSPost2010Prop43
 90
        3
102
RTVSPost2010PropOp43
 70
     1
102
RTVSPost2010Prop44ColorIndex
 90
        5
102
RTVSPost2010Prop44ColorRGB
 90
      255
102
RTVSPost2010PropOp44
 70
     1
102
RTVSPost2010Prop45
280
     0
102
RTVSPost2010PropOp45
 70
     1
102
RTVSPost2010Prop46
 90
       50
102
RTVSPost2010PropOp46
 70
     1
102
RTVSPost2010Prop47
 90
       50
102
RTVSPost2010PropOp47
 70
     1
102
RTVSPost2010Prop48
 90
       50
102
RTVSPost2010PropOp48
 70
     1
102
RTVSPost2010Prop49
280
     0
102
RTVSPost2010PropOp49
 70
     1
102
RTVSPost2010Prop50
 90
       50
102
RTVSPost2010PropOp50
 70
     1
102
RTVSPost2010Prop51ColorIndex
 90
      256
102
RTVSPost2010Prop51ColorRGB
 90
-16777216
102
RTVSPost2010PropOp51
 70
     0
102
RTVSPost2010Prop52
140
1.0
102
RTVSPost2010PropOp52
 70
     0
102
RTVSPost2010Prop53
 90
        2
102
RTVSPost2010PropOp53
 70
     1
102
RTVSPost2010Prop54
  1
strokes_ogs.tif
102
RTVSPost2010PropOp54
 70
     1
102
RTVSPost2010Prop55
280
     0
102
RTVSPost2010PropOp55
 70
     1
102
RTVSPost2010Prop56
140
1.0
102
RTVSPost2010PropOp56
 70
     1
102
RTVSPost2010Prop57
140
1.0
102
RTVSPost2010PropOp57
 70
     1
102
RTVSPropertyOp0
 70
     1
102
RTVSPropertyOp1
 70
     1
102
RTVSPropertyOp2
 70
     1
102
RTVSPropertyOp3
 70
     1
102
RTVSPropertyOp4
 70
     1
102
RTVSPropertyOp5
 70
     1
102
RTVSPropertyOp6
 70
     1
102
RTVSPropertyOp7
 70
     1
102
RTVSPropertyOp8
 70
     1
102
RTVSPropertyOp9
 70
     1
102
RTVSPropertyOp10
 70
     1
102
RTVSPropertyOp11
 70
     1
102
RTVSPropertyOp12
 70
     1
102
RTVSPropertyOp13
 70
     1
102
RTVSPropertyOp14
 70
     1
102
RTVSPropertyOp15
 70
     1
102
RTVSPropertyOp16
 70
     1
102
RTVSPropertyOp17
 70
     1
102
RTVSPropertyOp18
 70
     1
102
RTVSPropertyOp19
 70
     1
102
RTVSPropertyOp20
 70
     1
102
RTVSPropertyOp21
 70
     1
102
RTVSPropertyOp22
 70
     1
102
RTVSPropertyOp23
 70
     1
102
RTVSPropertyOp24
 70
     1
102
RTVSPropertyOp25
 70
     1
102
RTVSPropertyOp26
 70
     1
102
RTVSPropertyOp27
 70
     1
102
RTVSPropertyOp28
 70
     1
102
RTVSPropertyOp29
 70
     1
102
RTVSPropertyOp30
 70
     1
102
RTVSPropertyOp31
 70
     1
102
RTVSPropertyOp32
 70
     1
102
RTVSPropertyOp33
 70
     1
102
RTVSPropertyOp34
 70
     1
102
RTVSPropertyOp35
 70
     1
102
RTVSPropertyOp36
 70
     1
102
RTVSPropertyOp37
 70
     1
102
RTVSPropertyOp38
 70
     1
102
RTVSPropertyOp39
 70
     1
102
RTVSPropertyOp40
 70
     1
102
RTVSPropertyOp41
 70
     1
102
RTVSPropertyOp42
 70
     1
102
RTVSPropertyOp43
 70
     1
102
RTVSPropertyOp44
 70
     1
102
RTVSPropertyOp45
 70
     1
102
RTVSPropertyOp46
 70
     1
102
RTVSPropertyOp47
 70
     1
102
RTVSPropertyOp48
 70
     1
102
RTVSPropertyOp49
 70
     1
102
RTVSPropertyOp50
 70
     1
102
RTVSPropertyOp51
 70
     0
102
RTVSPropertyOp52
 70
     0
102
RTVSPropertyOp53
 70
     1
102
RTVSPropertyOp54
 70
     1
102
RTVSPropertyOp55
 70
     1
102
RTVSPropertyOp56
 70
     1
102
RTVSPropertyOp57
 70
     1
102
RTVSPropertyOp58
 70
     1
102
RTVSPropertyOp59
 70
     1
102
RTVSPropertyOp60
 70
     1
102
RTVSPropertyOp61
 70
     1
102
RTVSPropertyOp62
 70
     1
  0
XRECORD
  5
3BA
102
{ACAD_REACTORS
330
3B9
102
}
330
3B9
100
AcDbXrecord
280
     1
102
RTVSPost2010Prop28
280
     0
102
RTVSPost2010PropOp28
 70
     1
102
RTVSPost2010Prop29
280
     1
102
RTVSPost2010PropOp29
 70
     1
102
RTVSPost2010Prop30
280
     1
102
RTVSPost2010PropOp30
 70
     1
102
RTVSPost2010Prop31
280
     0
102
RTVSPost2010PropOp31
 70
     1
102
RTVSPost2010Prop32
280
     0
102
RTVSPost2010PropOp32
 70
     1
102
RTVSPost2010Prop33
280
     0
102
RTVSPost2010PropOp33
 70
     1
102
RTVSPost2010Prop34
280
     0
102
RTVSPost2010PropOp34
 70
     1
102
RTVSPost2010Prop35
280
     0
102
RTVSPost2010PropOp35
 70
     1
102
RTVSPost2010Prop36
280
     0
102
RTVSPost2010PropOp36
 70
     1
102
RTVSPost2010Prop37
 90
       50
102
RTVSPost2010PropOp37
 70
     1
102
RTVSPost2010Prop38
140
0.0
102
RTVSPost2010PropOp38
 70
     1
102
RTVSPost2010Prop39
140
1.0
102
RTVSPost2010PropOp39
 70
     1
102
RTVSPost2010Prop40
 90
        0
102
RTVSPost2010PropOp40
 70
     1
102
RTVSPost2010Prop41ColorIndex
 90
       18
102
RTVSPost2010Prop41ColorRGB
 90
        0
102
RTVSPost2010PropOp41
 70
     1
102
RTVSPost2010Prop42
 90
       50
102
RTVSPost2010PropOp42
 70
     1
102
RTVSPost2010Prop43
 90
        3
102
RTVSPost2010PropOp43
 70
     1
102
RTVSPost2010Prop44ColorIndex
 90
        5
102
RTVSPost2010Prop44ColorRGB
 90
      255
102
RTVSPost2010PropOp44
 70
     1
102
RTVSPost2010Prop45
280
     0
102
RTVSPost2010PropOp45
 70
     1
102
RTVSPost2010Prop46
 90
       50
102
RTVSPost2010PropOp46
 70
     1
102
RTVSPost2010Prop47
 90
       50
102
RTVSPost2010PropOp47
 70
     1
102
RTVSPost2010Prop48
 90
       50
102
RTVSPost2010PropOp48
 70
     1
102
RTVSPost2010Prop49
280
     0
102
RTVSPost2010PropOp49
 70
     1
102
RTVSPost2010Prop50
 90
       50
102
RTVSPost2010PropOp50
 70
     1
102
RTVSPost2010Prop51ColorIndex
 90
      256
102
RTVSPost2010Prop51ColorRGB
 90
-16777216
102
RTVSPost2010PropOp51
 70
     0
102
RTVSPost2010Prop52
140
1.0
102
RTVSPost2010PropOp52
 70
     0
102
RTVSPost2010Prop53
 90
        2
102
RTVSPost2010PropOp53
 70
     1
102
RTVSPost2010Prop54
  1
strokes_ogs.tif
102
RTVSPost2010PropOp54
 70
     1
102
RTVSPost2010Prop55
280
     0
102
RTVSPost2010PropOp55
 70
     1
102
RTVSPost2010Prop56
140
1.0
102
RTVSPost2010PropOp56
 70
     1
102
RTVSPost2010Prop57
140
1.0
102
RTVSPost2010PropOp57
 70
     1
102
RTVSPropertyOp0
 70
     1
102
RTVSPropertyOp1
 70
     1
102
RTVSPropertyOp2
 70
     1
102
RTVSPropertyOp3
 70
     1
102
RTVSPropertyOp4
 70
     1
102
RTVSPropertyOp5
 70
     1
102
RTVSPropertyOp6
 70
     1
102
RTVSPropertyOp7
 70
     1
102
RTVSPropertyOp8
 70
     1
102
RTVSPropertyOp9
 70
     1
102
RTVSPropertyOp10
 70
     1
102
RTVSPropertyOp11
 70
     1
102
RTVSPropertyOp12
 70
     1
102
RTVSPropertyOp13
 70
     1
102
RTVSPropertyOp14
 70
     1
102
RTVSPropertyOp15
 70
     1
102
RTVSPropertyOp16
 70
     1
102
RTVSPropertyOp17
 70
     1
102
RTVSPropertyOp18
 70
     1
102
RTVSPropertyOp19
 70
     1
102
RTVSPropertyOp20
 70
     1
102
RTVSPropertyOp21
 70
     1
102
RTVSPropertyOp22
 70
     1
102
RTVSPropertyOp23
 70
     1
102
RTVSPropertyOp24
 70
     1
102
RTVSPropertyOp25
 70
     1
102
RTVSPropertyOp26
 70
     1
102
RTVSPropertyOp27
 70
     1
102
RTVSPropertyOp28
 70
     1
102
RTVSPropertyOp29
 70
     1
102
RTVSPropertyOp30
 70
     1
102
RTVSPropertyOp31
 70
     1
102
RTVSPropertyOp32
 70
     1
102
RTVSPropertyOp33
 70
     1
102
RTVSPropertyOp34
 70
     1
102
RTVSPropertyOp35
 70
     1
102
RTVSPropertyOp36
 70
     1
102
RTVSPropertyOp37
 70
     1
102
RTVSPropertyOp38
 70
     1
102
RTVSPropertyOp39
 70
     1
102
RTVSPropertyOp40
 70
     1
102
RTVSPropertyOp41
 70
     1
102
RTVSPropertyOp42
 70
     1
102
RTVSPropertyOp43
 70
     1
102
RTVSPropertyOp44
 70
     1
102
RTVSPropertyOp45
 70
     1
102
RTVSPropertyOp46
 70
     1
102
RTVSPropertyOp47
 70
     1
102
RTVSPropertyOp48
 70
     1
102
RTVSPropertyOp49
 70
     1
102
RTVSPropertyOp50
 70
     1
102
RTVSPropertyOp51
 70
     0
102
RTVSPropertyOp52
 70
     0
102
RTVSPropertyOp53
 70
     1
102
RTVSPropertyOp54
 70
     1
102
RTVSPropertyOp55
 70
     1
102
RTVSPropertyOp56
 70
     1
102
RTVSPropertyOp57
 70
     1
102
RTVSPropertyOp58
 70
     1
102
RTVSPropertyOp59
 70
     1
102
RTVSPropertyOp60
 70
     1
102
RTVSPropertyOp61
 70
     1
102
RTVSPropertyOp62
 70
     1
  0
XRECORD
  5
3D4
102
{ACAD_REACTORS
330
3D3
102
}
330
3D3
100
AcDbXrecord
280
     1
102
RTVSPost2010Prop28
280
     0
102
RTVSPost2010PropOp28
 70
     1
102
RTVSPost2010Prop29
280
     1
102
RTVSPost2010PropOp29
 70
     1
102
RTVSPost2010Prop30
280
     1
102
RTVSPost2010PropOp30
 70
     1
102
RTVSPost2010Prop31
280
     0
102
RTVSPost2010PropOp31
 70
     1
102
RTVSPost2010Prop32
280
     0
102
RTVSPost2010PropOp32
 70
     1
102
RTVSPost2010Prop33
280
     0
102
RTVSPost2010PropOp33
 70
     1
102
RTVSPost2010Prop34
280
     0
102
RTVSPost2010PropOp34
 70
     1
102
RTVSPost2010Prop35
280
     0
102
RTVSPost2010PropOp35
 70
     1
102
RTVSPost2010Prop36
280
     0
102
RTVSPost2010PropOp36
 70
     1
102
RTVSPost2010Prop37
 90
       50
102
RTVSPost2010PropOp37
 70
     0
102
RTVSPost2010Prop38
140
0.0
102
RTVSPost2010PropOp38
 70
     0
102
RTVSPost2010Prop39
140
1.0
102
RTVSPost2010PropOp39
 70
     0
102
RTVSPost2010Prop40
 90
        0
102
RTVSPost2010PropOp40
 70
     0
102
RTVSPost2010Prop41ColorIndex
 90
       18
102
RTVSPost2010Prop41ColorRGB
 90
        0
102
RTVSPost2010PropOp41
 70
     0
102
RTVSPost2010Prop42
 90
       50
102
RTVSPost2010PropOp42
 70
     0
102
RTVSPost2010Prop43
 90
        3
102
RTVSPost2010PropOp43
 70
     0
102
RTVSPost2010Prop44ColorIndex
 90
        5
102
RTVSPost2010Prop44ColorRGB
 90
      255
102
RTVSPost2010PropOp44
 70
     0
102
RTVSPost2010Prop45
280
     0
102
RTVSPost2010PropOp45
 70
     1
102
RTVSPost2010Prop46
 90
       50
102
RTVSPost2010PropOp46
 70
     0
102
RTVSPost2010Prop47
 90
       50
102
RTVSPost2010PropOp47
 70
     0
102
RTVSPost2010Prop48
 90
       50
102
RTVSPost2010PropOp48
 70
     0
102
RTVSPost2010Prop49
280
     0
102
RTVSPost2010PropOp49
 70
     1
102
RTVSPost2010Prop50
 90
       50
102
RTVSPost2010PropOp50
 70
     0
102
RTVSPost2010Prop51ColorIndex
 90
      256
102
RTVSPost2010Prop51ColorRGB
 90
-16777216
102
RTVSPost2010PropOp51
 70
     0
102
RTVSPost2010Prop52
140
1.0
102
RTVSPost2010PropOp52
 70
     0
102
RTVSPost2010Prop53
 90
        2
102
RTVSPost2010PropOp53
 70
     0
102
RTVSPost2010Prop54
  1
strokes_ogs.tif
102
RTVSPost2010PropOp54
 70
     0
102
RTVSPost2010Prop55
280
     0
102
RTVSPost2010PropOp55
 70
     1
102
RTVSPost2010Prop56
140
1.0
102
RTVSPost2010PropOp56
 70
     0
102
RTVSPost2010Prop57
140
1.0
102
RTVSPost2010PropOp57
 70
     0
102
RTVSPropertyOp0
 70
     0
102
RTVSPropertyOp1
 70
     0
102
RTVSPropertyOp2
 70
     0
102
RTVSPropertyOp3
 70
     0
102
RTVSPropertyOp4
 70
     0
102
RTVSPropertyOp5
 70
     0
102
RTVSPropertyOp6
 70
     0
102
RTVSPropertyOp7
 70
     0
102
RTVSPropertyOp8
 70
     0
102
RTVSPropertyOp9
 70
     0
102
RTVSPropertyOp10
 70
     0
102
RTVSPropertyOp11
 70
     0
102
RTVSPropertyOp12
 70
     0
102
RTVSPropertyOp13
 70
     0
102
RTVSPropertyOp14
 70
     2
102
RTVSPropertyOp15
 70
     0
102
RTVSPropertyOp16
 70
     0
102
RTVSPropertyOp17
 70
     0
102
RTVSPropertyOp18
 70
     0
102
RTVSPropertyOp19
 70
     0
102
RTVSPropertyOp20
 70
     0
102
RTVSPropertyOp21
 70
     0
102
RTVSPropertyOp22
 70
     0
102
RTVSPropertyOp23
 70
     0
102
RTVSPropertyOp24
 70
     0
102
RTVSPropertyOp25
 70
     0
102
RTVSPropertyOp26
 70
     0
102
RTVSPropertyOp27
 70
     0
102
RTVSPropertyOp28
 70
     1
102
RTVSPropertyOp29
 70
     1
102
RTVSPropertyOp30
 70
     1
102
RTVSPropertyOp31
 70
     1
102
RTVSPropertyOp32
 70
     1
102
RTVSPropertyOp33
 70
     1
102
RTVSPropertyOp34
 70
     1
102
RTVSPropertyOp35
 70
     1
102
RTVSPropertyOp36
 70
     1
102
RTVSPropertyOp37
 70
     0
102
RTVSPropertyOp38
 70
     0
102
RTVSPropertyOp39
 70
     0
102
RTVSPropertyOp40
 70
     0
102
RTVSPropertyOp41
 70
     0
102
RTVSPropertyOp42
 70
     0
102
RTVSPropertyOp43
 70
     0
102
RTVSPropertyOp44
 70
     0
102
RTVSPropertyOp45
 70
     1
102
RTVSPropertyOp46
 70
     0
102
RTVSPropertyOp47
 70
     0
102
RTVSPropertyOp48
 70
     0
102
RTVSPropertyOp49
 70
     1
102
RTVSPropertyOp50
 70
     0
102
RTVSPropertyOp51
 70
     0
102
RTVSPropertyOp52
 70
     0
102
RTVSPropertyOp53
 70
     0
102
RTVSPropertyOp54
 70
     0
102
RTVSPropertyOp55
 70
     1
102
RTVSPropertyOp56
 70
     0
102
RTVSPropertyOp57
 70
     0
102
RTVSPropertyOp58
 70
     0
102
RTVSPropertyOp59
 70
     0
102
RTVSPropertyOp60
 70
     0
102
RTVSPropertyOp61
 70
     0
102
RTVSPropertyOp62
 70
     0
  0
XRECORD
  5
3C2
102
{ACAD_REACTORS
330
3C1
102
}
330
3C1
100
AcDbXrecord
280
     1
102
RTVSPost2010Prop28
280
     0
102
RTVSPost2010PropOp28
 70
     1
102
RTVSPost2010Prop29
280
     1
102
RTVSPost2010PropOp29
 70
     1
102
RTVSPost2010Prop30
280
     1
102
RTVSPost2010PropOp30
 70
     1
102
RTVSPost2010Prop31
280
     0
102
RTVSPost2010PropOp31
 70
     1
102
RTVSPost2010Prop32
280
     0
102
RTVSPost2010PropOp32
 70
     1
102
RTVSPost2010Prop33
280
     0
102
RTVSPost2010PropOp33
 70
     1
102
RTVSPost2010Prop34
280
     0
102
RTVSPost2010PropOp34
 70
     1
102
RTVSPost2010Prop35
280
     0
102
RTVSPost2010PropOp35
 70
     1
102
RTVSPost2010Prop36
280
     0
102
RTVSPost2010PropOp36
 70
     1
102
RTVSPost2010Prop37
 90
       50
102
RTVSPost2010PropOp37
 70
     1
102
RTVSPost2010Prop38
140
0.0
102
RTVSPost2010PropOp38
 70
     1
102
RTVSPost2010Prop39
140
1.0
102
RTVSPost2010PropOp39
 70
     1
102
RTVSPost2010Prop40
 90
        0
102
RTVSPost2010PropOp40
 70
     1
102
RTVSPost2010Prop41ColorIndex
 90
       18
102
RTVSPost2010Prop41ColorRGB
 90
        0
102
RTVSPost2010PropOp41
 70
     1
102
RTVSPost2010Prop42
 90
       50
102
RTVSPost2010PropOp42
 70
     1
102
RTVSPost2010Prop43
 90
        3
102
RTVSPost2010PropOp43
 70
     1
102
RTVSPost2010Prop44ColorIndex
 90
        5
102
RTVSPost2010Prop44ColorRGB
 90
      255
102
RTVSPost2010PropOp44
 70
     1
102
RTVSPost2010Prop45
280
     0
102
RTVSPost2010PropOp45
 70
     1
102
RTVSPost2010Prop46
 90
       50
102
RTVSPost2010PropOp46
 70
     1
102
RTVSPost2010Prop47
 90
       50
102
RTVSPost2010PropOp47
 70
     1
102
RTVSPost2010Prop48
 90
       50
102
RTVSPost2010PropOp48
 70
     1
102
RTVSPost2010Prop49
280
     0
102
RTVSPost2010PropOp49
 70
     1
102
RTVSPost2010Prop50
 90
       50
102
RTVSPost2010PropOp50
 70
     1
102
RTVSPost2010Prop51ColorIndex
 90
      256
102
RTVSPost2010Prop51ColorRGB
 90
-16777216
102
RTVSPost2010PropOp51
 70
     0
102
RTVSPost2010Prop52
140
1.0
102
RTVSPost2010PropOp52
 70
     0
102
RTVSPost2010Prop53
 90
        2
102
RTVSPost2010PropOp53
 70
     1
102
RTVSPost2010Prop54
  1
strokes_ogs.tif
102
RTVSPost2010PropOp54
 70
     1
102
RTVSPost2010Prop55
280
     0
102
RTVSPost2010PropOp55
 70
     1
102
RTVSPost2010Prop56
140
1.0
102
RTVSPost2010PropOp56
 70
     1
102
RTVSPost2010Prop57
140
1.0
102
RTVSPost2010PropOp57
 70
     1
102
RTVSPropertyOp0
 70
     1
102
RTVSPropertyOp1
 70
     1
102
RTVSPropertyOp2
 70
     1
102
RTVSPropertyOp3
 70
     1
102
RTVSPropertyOp4
 70
     1
102
RTVSPropertyOp5
 70
     1
102
RTVSPropertyOp6
 70
     1
102
RTVSPropertyOp7
 70
     1
102
RTVSPropertyOp8
 70
     1
102
RTVSPropertyOp9
 70
     1
102
RTVSPropertyOp10
 70
     1
102
RTVSPropertyOp11
 70
     1
102
RTVSPropertyOp12
 70
     1
102
RTVSPropertyOp13
 70
     1
102
RTVSPropertyOp14
 70
     1
102
RTVSPropertyOp15
 70
     1
102
RTVSPropertyOp16
 70
     1
102
RTVSPropertyOp17
 70
     1
102
RTVSPropertyOp18
 70
     1
102
RTVSPropertyOp19
 70
     1
102
RTVSPropertyOp20
 70
     1
102
RTVSPropertyOp21
 70
     1
102
RTVSPropertyOp22
 70
     1
102
RTVSPropertyOp23
 70
     1
102
RTVSPropertyOp24
 70
     1
102
RTVSPropertyOp25
 70
     1
102
RTVSPropertyOp26
 70
     1
102
RTVSPropertyOp27
 70
     1
102
RTVSPropertyOp28
 70
     1
102
RTVSPropertyOp29
 70
     1
102
RTVSPropertyOp30
 70
     1
102
RTVSPropertyOp31
 70
     1
102
RTVSPropertyOp32
 70
     1
102
RTVSPropertyOp33
 70
     1
102
RTVSPropertyOp34
 70
     1
102
RTVSPropertyOp35
 70
     1
102
RTVSPropertyOp36
 70
     1
102
RTVSPropertyOp37
 70
     1
102
RTVSPropertyOp38
 70
     1
102
RTVSPropertyOp39
 70
     1
102
RTVSPropertyOp40
 70
     1
102
RTVSPropertyOp41
 70
     1
102
RTVSPropertyOp42
 70
     1
102
RTVSPropertyOp43
 70
     1
102
RTVSPropertyOp44
 70
     1
102
RTVSPropertyOp45
 70
     1
102
RTVSPropertyOp46
 70
     1
102
RTVSPropertyOp47
 70
     1
102
RTVSPropertyOp48
 70
     1
102
RTVSPropertyOp49
 70
     1
102
RTVSPropertyOp50
 70
     1
102
RTVSPropertyOp51
 70
     0
102
RTVSPropertyOp52
 70
     0
102
RTVSPropertyOp53
 70
     1
102
RTVSPropertyOp54
 70
     1
102
RTVSPropertyOp55
 70
     1
102
RTVSPropertyOp56
 70
     1
102
RTVSPropertyOp57
 70
     1
102
RTVSPropertyOp58
 70
     1
102
RTVSPropertyOp59
 70
     1
102
RTVSPropertyOp60
 70
     1
102
RTVSPropertyOp61
 70
     1
102
RTVSPropertyOp62
 70
     1
  0
XRECORD
  5
3A6
102
{ACAD_REACTORS
330
3A5
102
}
330
3A5
100
AcDbXrecord
280
     1
102
RTVSPost2010Prop28
280
     0
102
RTVSPost2010PropOp28
 70
     1
102
RTVSPost2010Prop29
280
     1
102
RTVSPost2010PropOp29
 70
     1
102
RTVSPost2010Prop30
280
     1
102
RTVSPost2010PropOp30
 70
     1
102
RTVSPost2010Prop31
280
     0
102
RTVSPost2010PropOp31
 70
     1
102
RTVSPost2010Prop32
280
     0
102
RTVSPost2010PropOp32
 70
     1
102
RTVSPost2010Prop33
280
     0
102
RTVSPost2010PropOp33
 70
     1
102
RTVSPost2010Prop34
280
     0
102
RTVSPost2010PropOp34
 70
     1
102
RTVSPost2010Prop35
280
     0
102
RTVSPost2010PropOp35
 70
     1
102
RTVSPost2010Prop36
280
     0
102
RTVSPost2010PropOp36
 70
     1
102
RTVSPost2010Prop37
 90
       50
102
RTVSPost2010PropOp37
 70
     1
102
RTVSPost2010Prop38
140
0.0
102
RTVSPost2010PropOp38
 70
     1
102
RTVSPost2010Prop39
140
1.0
102
RTVSPost2010PropOp39
 70
     1
102
RTVSPost2010Prop40
 90
        0
102
RTVSPost2010PropOp40
 70
     1
102
RTVSPost2010Prop41ColorIndex
 90
       18
102
RTVSPost2010Prop41ColorRGB
 90
        0
102
RTVSPost2010PropOp41
 70
     1
102
RTVSPost2010Prop42
 90
       50
102
RTVSPost2010PropOp42
 70
     1
102
RTVSPost2010Prop43
 90
        3
102
RTVSPost2010PropOp43
 70
     1
102
RTVSPost2010Prop44ColorIndex
 90
        5
102
RTVSPost2010Prop44ColorRGB
 90
      255
102
RTVSPost2010PropOp44
 70
     1
102
RTVSPost2010Prop45
280
     0
102
RTVSPost2010PropOp45
 70
     1
102
RTVSPost2010Prop46
 90
       50
102
RTVSPost2010PropOp46
 70
     1
102
RTVSPost2010Prop47
 90
       50
102
RTVSPost2010PropOp47
 70
     1
102
RTVSPost2010Prop48
 90
       50
102
RTVSPost2010PropOp48
 70
     1
102
RTVSPost2010Prop49
280
     0
102
RTVSPost2010PropOp49
 70
     1
102
RTVSPost2010Prop50
 90
       50
102
RTVSPost2010PropOp50
 70
     1
102
RTVSPost2010Prop51ColorIndex
 90
      256
102
RTVSPost2010Prop51ColorRGB
 90
-16777216
102
RTVSPost2010PropOp51
 70
     0
102
RTVSPost2010Prop52
140
1.0
102
RTVSPost2010PropOp52
 70
     0
102
RTVSPost2010Prop53
 90
        2
102
RTVSPost2010PropOp53
 70
     1
102
RTVSPost2010Prop54
  1
strokes_ogs.tif
102
RTVSPost2010PropOp54
 70
     1
102
RTVSPost2010Prop55
280
     0
102
RTVSPost2010PropOp55
 70
     1
102
RTVSPost2010Prop56
140
1.0
102
RTVSPost2010PropOp56
 70
     1
102
RTVSPost2010Prop57
140
1.0
102
RTVSPost2010PropOp57
 70
     1
102
RTVSPropertyOp0
 70
     1
102
RTVSPropertyOp1
 70
     1
102
RTVSPropertyOp2
 70
     1
102
RTVSPropertyOp3
 70
     1
102
RTVSPropertyOp4
 70
     1
102
RTVSPropertyOp5
 70
     1
102
RTVSPropertyOp6
 70
     1
102
RTVSPropertyOp7
 70
     1
102
RTVSPropertyOp8
 70
     1
102
RTVSPropertyOp9
 70
     1
102
RTVSPropertyOp10
 70
     1
102
RTVSPropertyOp11
 70
     1
102
RTVSPropertyOp12
 70
     1
102
RTVSPropertyOp13
 70
     1
102
RTVSPropertyOp14
 70
     1
102
RTVSPropertyOp15
 70
     1
102
RTVSPropertyOp16
 70
     1
102
RTVSPropertyOp17
 70
     1
102
RTVSPropertyOp18
 70
     1
102
RTVSPropertyOp19
 70
     1
102
RTVSPropertyOp20
 70
     1
102
RTVSPropertyOp21
 70
     1
102
RTVSPropertyOp22
 70
     1
102
RTVSPropertyOp23
 70
     1
102
RTVSPropertyOp24
 70
     1
102
RTVSPropertyOp25
 70
     1
102
RTVSPropertyOp26
 70
     1
102
RTVSPropertyOp27
 70
     1
102
RTVSPropertyOp28
 70
     1
102
RTVSPropertyOp29
 70
     1
102
RTVSPropertyOp30
 70
     1
102
RTVSPropertyOp31
 70
     1
102
RTVSPropertyOp32
 70
     1
102
RTVSPropertyOp33
 70
     1
102
RTVSPropertyOp34
 70
     1
102
RTVSPropertyOp35
 70
     1
102
RTVSPropertyOp36
 70
     1
102
RTVSPropertyOp37
 70
     1
102
RTVSPropertyOp38
 70
     1
102
RTVSPropertyOp39
 70
     1
102
RTVSPropertyOp40
 70
     1
102
RTVSPropertyOp41
 70
     1
102
RTVSPropertyOp42
 70
     1
102
RTVSPropertyOp43
 70
     1
102
RTVSPropertyOp44
 70
     1
102
RTVSPropertyOp45
 70
     1
102
RTVSPropertyOp46
 70
     1
102
RTVSPropertyOp47
 70
     1
102
RTVSPropertyOp48
 70
     1
102
RTVSPropertyOp49
 70
     1
102
RTVSPropertyOp50
 70
     1
102
RTVSPropertyOp51
 70
     0
102
RTVSPropertyOp52
 70
     0
102
RTVSPropertyOp53
 70
     1
102
RTVSPropertyOp54
 70
     1
102
RTVSPropertyOp55
 70
     1
102
RTVSPropertyOp56
 70
     1
102
RTVSPropertyOp57
 70
     1
102
RTVSPropertyOp58
 70
     1
102
RTVSPropertyOp59
 70
     1
102
RTVSPropertyOp60
 70
     1
102
RTVSPropertyOp61
 70
     1
102
RTVSPropertyOp62
 70
     1
  0
XRECORD
  5
3A8
102
{ACAD_REACTORS
330
3A7
102
}
330
3A7
100
AcDbXrecord
280
     1
102
RTVSPost2010Prop28
280
     0
102
RTVSPost2010PropOp28
 70
     1
102
RTVSPost2010Prop29
280
     1
102
RTVSPost2010PropOp29
 70
     1
102
RTVSPost2010Prop30
280
     1
102
RTVSPost2010PropOp30
 70
     1
102
RTVSPost2010Prop31
280
     0
102
RTVSPost2010PropOp31
 70
     1
102
RTVSPost2010Prop32
280
     0
102
RTVSPost2010PropOp32
 70
     1
102
RTVSPost2010Prop33
280
     0
102
RTVSPost2010PropOp33
 70
     1
102
RTVSPost2010Prop34
280
     0
102
RTVSPost2010PropOp34
 70
     1
102
RTVSPost2010Prop35
280
     0
102
RTVSPost2010PropOp35
 70
     1
102
RTVSPost2010Prop36
280
     0
102
RTVSPost2010PropOp36
 70
     1
102
RTVSPost2010Prop37
 90
       50
102
RTVSPost2010PropOp37
 70
     1
102
RTVSPost2010Prop38
140
0.0
102
RTVSPost2010PropOp38
 70
     1
102
RTVSPost2010Prop39
140
1.0
102
RTVSPost2010PropOp39
 70
     1
102
RTVSPost2010Prop40
 90
        0
102
RTVSPost2010PropOp40
 70
     1
102
RTVSPost2010Prop41ColorIndex
 90
       18
102
RTVSPost2010Prop41ColorRGB
 90
        0
102
RTVSPost2010PropOp41
 70
     1
102
RTVSPost2010Prop42
 90
       50
102
RTVSPost2010PropOp42
 70
     1
102
RTVSPost2010Prop43
 90
        3
102
RTVSPost2010PropOp43
 70
     1
102
RTVSPost2010Prop44ColorIndex
 90
        5
102
RTVSPost2010Prop44ColorRGB
 90
      255
102
RTVSPost2010PropOp44
 70
     1
102
RTVSPost2010Prop45
280
     0
102
RTVSPost2010PropOp45
 70
     1
102
RTVSPost2010Prop46
 90
       50
102
RTVSPost2010PropOp46
 70
     1
102
RTVSPost2010Prop47
 90
       50
102
RTVSPost2010PropOp47
 70
     1
102
RTVSPost2010Prop48
 90
       50
102
RTVSPost2010PropOp48
 70
     1
102
RTVSPost2010Prop49
280
     0
102
RTVSPost2010PropOp49
 70
     1
102
RTVSPost2010Prop50
 90
       50
102
RTVSPost2010PropOp50
 70
     1
102
RTVSPost2010Prop51ColorIndex
 90
      256
102
RTVSPost2010Prop51ColorRGB
 90
-16777216
102
RTVSPost2010PropOp51
 70
     0
102
RTVSPost2010Prop52
140
1.0
102
RTVSPost2010PropOp52
 70
     0
102
RTVSPost2010Prop53
 90
        2
102
RTVSPost2010PropOp53
 70
     1
102
RTVSPost2010Prop54
  1
strokes_ogs.tif
102
RTVSPost2010PropOp54
 70
     1
102
RTVSPost2010Prop55
280
     0
102
RTVSPost2010PropOp55
 70
     1
102
RTVSPost2010Prop56
140
1.0
102
RTVSPost2010PropOp56
 70
     1
102
RTVSPost2010Prop57
140
1.0
102
RTVSPost2010PropOp57
 70
     1
102
RTVSPropertyOp0
 70
     1
102
RTVSPropertyOp1
 70
     1
102
RTVSPropertyOp2
 70
     1
102
RTVSPropertyOp3
 70
     1
102
RTVSPropertyOp4
 70
     1
102
RTVSPropertyOp5
 70
     1
102
RTVSPropertyOp6
 70
     1
102
RTVSPropertyOp7
 70
     1
102
RTVSPropertyOp8
 70
     1
102
RTVSPropertyOp9
 70
     1
102
RTVSPropertyOp10
 70
     1
102
RTVSPropertyOp11
 70
     1
102
RTVSPropertyOp12
 70
     1
102
RTVSPropertyOp13
 70
     1
102
RTVSPropertyOp14
 70
     1
102
RTVSPropertyOp15
 70
     1
102
RTVSPropertyOp16
 70
     1
102
RTVSPropertyOp17
 70
     1
102
RTVSPropertyOp18
 70
     1
102
RTVSPropertyOp19
 70
     1
102
RTVSPropertyOp20
 70
     1
102
RTVSPropertyOp21
 70
     1
102
RTVSPropertyOp22
 70
     1
102
RTVSPropertyOp23
 70
     1
102
RTVSPropertyOp24
 70
     1
102
RTVSPropertyOp25
 70
     1
102
RTVSPropertyOp26
 70
     1
102
RTVSPropertyOp27
 70
     1
102
RTVSPropertyOp28
 70
     1
102
RTVSPropertyOp29
 70
     1
102
RTVSPropertyOp30
 70
     1
102
RTVSPropertyOp31
 70
     1
102
RTVSPropertyOp32
 70
     1
102
RTVSPropertyOp33
 70
     1
102
RTVSPropertyOp34
 70
     1
102
RTVSPropertyOp35
 70
     1
102
RTVSPropertyOp36
 70
     1
102
RTVSPropertyOp37
 70
     1
102
RTVSPropertyOp38
 70
     1
102
RTVSPropertyOp39
 70
     1
102
RTVSPropertyOp40
 70
     1
102
RTVSPropertyOp41
 70
     1
102
RTVSPropertyOp42
 70
     1
102
RTVSPropertyOp43
 70
     1
102
RTVSPropertyOp44
 70
     1
102
RTVSPropertyOp45
 70
     1
102
RTVSPropertyOp46
 70
     1
102
RTVSPropertyOp47
 70
     1
102
RTVSPropertyOp48
 70
     1
102
RTVSPropertyOp49
 70
     1
102
RTVSPropertyOp50
 70
     1
102
RTVSPropertyOp51
 70
     0
102
RTVSPropertyOp52
 70
     0
102
RTVSPropertyOp53
 70
     1
102
RTVSPropertyOp54
 70
     1
102
RTVSPropertyOp55
 70
     1
102
RTVSPropertyOp56
 70
     1
102
RTVSPropertyOp57
 70
     1
102
RTVSPropertyOp58
 70
     1
102
RTVSPropertyOp59
 70
     1
102
RTVSPropertyOp60
 70
     1
102
RTVSPropertyOp61
 70
     1
102
RTVSPropertyOp62
 70
     1
  0
XRECORD
  5
3AA
102
{ACAD_REACTORS
330
3A9
102
}
330
3A9
100
AcDbXrecord
280
     1
102
RTVSPost2010Prop28
280
     0
102
RTVSPost2010PropOp28
 70
     1
102
RTVSPost2010Prop29
280
     1
102
RTVSPost2010PropOp29
 70
     1
102
RTVSPost2010Prop30
280
     1
102
RTVSPost2010PropOp30
 70
     1
102
RTVSPost2010Prop31
280
     0
102
RTVSPost2010PropOp31
 70
     1
102
RTVSPost2010Prop32
280
     0
102
RTVSPost2010PropOp32
 70
     1
102
RTVSPost2010Prop33
280
     0
102
RTVSPost2010PropOp33
 70
     1
102
RTVSPost2010Prop34
280
     0
102
RTVSPost2010PropOp34
 70
     1
102
RTVSPost2010Prop35
280
     0
102
RTVSPost2010PropOp35
 70
     1
102
RTVSPost2010Prop36
280
     0
102
RTVSPost2010PropOp36
 70
     1
102
RTVSPost2010Prop37
 90
       50
102
RTVSPost2010PropOp37
 70
     1
102
RTVSPost2010Prop38
140
0.0
102
RTVSPost2010PropOp38
 70
     1
102
RTVSPost2010Prop39
140
1.0
102
RTVSPost2010PropOp39
 70
     1
102
RTVSPost2010Prop40
 90
        0
102
RTVSPost2010PropOp40
 70
     1
102
RTVSPost2010Prop41ColorIndex
 90
       18
102
RTVSPost2010Prop41ColorRGB
 90
        0
102
RTVSPost2010PropOp41
 70
     1
102
RTVSPost2010Prop42
 90
       50
102
RTVSPost2010PropOp42
 70
     1
102
RTVSPost2010Prop43
 90
        3
102
RTVSPost2010PropOp43
 70
     1
102
RTVSPost2010Prop44ColorIndex
 90
        5
102
RTVSPost2010Prop44ColorRGB
 90
      255
102
RTVSPost2010PropOp44
 70
     1
102
RTVSPost2010Prop45
280
     0
102
RTVSPost2010PropOp45
 70
     1
102
RTVSPost2010Prop46
 90
       50
102
RTVSPost2010PropOp46
 70
     1
102
RTVSPost2010Prop47
 90
       50
102
RTVSPost2010PropOp47
 70
     1
102
RTVSPost2010Prop48
 90
       50
102
RTVSPost2010PropOp48
 70
     1
102
RTVSPost2010Prop49
280
     0
102
RTVSPost2010PropOp49
 70
     1
102
RTVSPost2010Prop50
 90
       50
102
RTVSPost2010PropOp50
 70
     1
102
RTVSPost2010Prop51ColorIndex
 90
      256
102
RTVSPost2010Prop51ColorRGB
 90
-16777216
102
RTVSPost2010PropOp51
 70
     0
102
RTVSPost2010Prop52
140
1.0
102
RTVSPost2010PropOp52
 70
     0
102
RTVSPost2010Prop53
 90
        2
102
RTVSPost2010PropOp53
 70
     1
102
RTVSPost2010Prop54
  1
strokes_ogs.tif
102
RTVSPost2010PropOp54
 70
     1
102
RTVSPost2010Prop55
280
     0
102
RTVSPost2010PropOp55
 70
     1
102
RTVSPost2010Prop56
140
1.0
102
RTVSPost2010PropOp56
 70
     1
102
RTVSPost2010Prop57
140
1.0
102
RTVSPost2010PropOp57
 70
     1
102
RTVSPropertyOp0
 70
     1
102
RTVSPropertyOp1
 70
     1
102
RTVSPropertyOp2
 70
     1
102
RTVSPropertyOp3
 70
     1
102
RTVSPropertyOp4
 70
     1
102
RTVSPropertyOp5
 70
     1
102
RTVSPropertyOp6
 70
     1
102
RTVSPropertyOp7
 70
     1
102
RTVSPropertyOp8
 70
     1
102
RTVSPropertyOp9
 70
     1
102
RTVSPropertyOp10
 70
     1
102
RTVSPropertyOp11
 70
     1
102
RTVSPropertyOp12
 70
     1
102
RTVSPropertyOp13
 70
     1
102
RTVSPropertyOp14
 70
     1
102
RTVSPropertyOp15
 70
     1
102
RTVSPropertyOp16
 70
     1
102
RTVSPropertyOp17
 70
     1
102
RTVSPropertyOp18
 70
     1
102
RTVSPropertyOp19
 70
     1
102
RTVSPropertyOp20
 70
     1
102
RTVSPropertyOp21
 70
     1
102
RTVSPropertyOp22
 70
     1
102
RTVSPropertyOp23
 70
     1
102
RTVSPropertyOp24
 70
     1
102
RTVSPropertyOp25
 70
     1
102
RTVSPropertyOp26
 70
     1
102
RTVSPropertyOp27
 70
     1
102
RTVSPropertyOp28
 70
     1
102
RTVSPropertyOp29
 70
     1
102
RTVSPropertyOp30
 70
     1
102
RTVSPropertyOp31
 70
     1
102
RTVSPropertyOp32
 70
     1
102
RTVSPropertyOp33
 70
     1
102
RTVSPropertyOp34
 70
     1
102
RTVSPropertyOp35
 70
     1
102
RTVSPropertyOp36
 70
     1
102
RTVSPropertyOp37
 70
     1
102
RTVSPropertyOp38
 70
     1
102
RTVSPropertyOp39
 70
     1
102
RTVSPropertyOp40
 70
     1
102
RTVSPropertyOp41
 70
     1
102
RTVSPropertyOp42
 70
     1
102
RTVSPropertyOp43
 70
     1
102
RTVSPropertyOp44
 70
     1
102
RTVSPropertyOp45
 70
     1
102
RTVSPropertyOp46
 70
     1
102
RTVSPropertyOp47
 70
     1
102
RTVSPropertyOp48
 70
     1
102
RTVSPropertyOp49
 70
     1
102
RTVSPropertyOp50
 70
     1
102
RTVSPropertyOp51
 70
     0
102
RTVSPropertyOp52
 70
     0
102
RTVSPropertyOp53
 70
     1
102
RTVSPropertyOp54
 70
     1
102
RTVSPropertyOp55
 70
     1
102
RTVSPropertyOp56
 70
     1
102
RTVSPropertyOp57
 70
     1
102
RTVSPropertyOp58
 70
     1
102
RTVSPropertyOp59
 70
     1
102
RTVSPropertyOp60
 70
     1
102
RTVSPropertyOp61
 70
     1
102
RTVSPropertyOp62
 70
     1
  0
XRECORD
  5
3AC
102
{ACAD_REACTORS
330
3AB
102
}
330
3AB
100
AcDbXrecord
280
     1
102
RTVSPost2010Prop28
280
     0
102
RTVSPost2010PropOp28
 70
     1
102
RTVSPost2010Prop29
280
     1
102
RTVSPost2010PropOp29
 70
     1
102
RTVSPost2010Prop30
280
     1
102
RTVSPost2010PropOp30
 70
     1
102
RTVSPost2010Prop31
280
     0
102
RTVSPost2010PropOp31
 70
     1
102
RTVSPost2010Prop32
280
     0
102
RTVSPost2010PropOp32
 70
     1
102
RTVSPost2010Prop33
280
     0
102
RTVSPost2010PropOp33
 70
     1
102
RTVSPost2010Prop34
280
     0
102
RTVSPost2010PropOp34
 70
     1
102
RTVSPost2010Prop35
280
     0
102
RTVSPost2010PropOp35
 70
     1
102
RTVSPost2010Prop36
280
     0
102
RTVSPost2010PropOp36
 70
     1
102
RTVSPost2010Prop37
 90
       50
102
RTVSPost2010PropOp37
 70
     1
102
RTVSPost2010Prop38
140
0.0
102
RTVSPost2010PropOp38
 70
     1
102
RTVSPost2010Prop39
140
1.0
102
RTVSPost2010PropOp39
 70
     1
102
RTVSPost2010Prop40
 90
        0
102
RTVSPost2010PropOp40
 70
     1
102
RTVSPost2010Prop41ColorIndex
 90
       18
102
RTVSPost2010Prop41ColorRGB
 90
        0
102
RTVSPost2010PropOp41
 70
     1
102
RTVSPost2010Prop42
 90
       50
102
RTVSPost2010PropOp42
 70
     1
102
RTVSPost2010Prop43
 90
        3
102
RTVSPost2010PropOp43
 70
     1
102
RTVSPost2010Prop44ColorIndex
 90
        5
102
RTVSPost2010Prop44ColorRGB
 90
      255
102
RTVSPost2010PropOp44
 70
     1
102
RTVSPost2010Prop45
280
     0
102
RTVSPost2010PropOp45
 70
     1
102
RTVSPost2010Prop46
 90
       50
102
RTVSPost2010PropOp46
 70
     1
102
RTVSPost2010Prop47
 90
       50
102
RTVSPost2010PropOp47
 70
     1
102
RTVSPost2010Prop48
 90
       50
102
RTVSPost2010PropOp48
 70
     1
102
RTVSPost2010Prop49
280
     0
102
RTVSPost2010PropOp49
 70
     1
102
RTVSPost2010Prop50
 90
       50
102
RTVSPost2010PropOp50
 70
     1
102
RTVSPost2010Prop51ColorIndex
 90
      256
102
RTVSPost2010Prop51ColorRGB
 90
-16777216
102
RTVSPost2010PropOp51
 70
     0
102
RTVSPost2010Prop52
140
1.0
102
RTVSPost2010PropOp52
 70
     0
102
RTVSPost2010Prop53
 90
        2
102
RTVSPost2010PropOp53
 70
     1
102
RTVSPost2010Prop54
  1
strokes_ogs.tif
102
RTVSPost2010PropOp54
 70
     1
102
RTVSPost2010Prop55
280
     0
102
RTVSPost2010PropOp55
 70
     1
102
RTVSPost2010Prop56
140
1.0
102
RTVSPost2010PropOp56
 70
     1
102
RTVSPost2010Prop57
140
1.0
102
RTVSPost2010PropOp57
 70
     1
102
RTVSPropertyOp0
 70
     1
102
RTVSPropertyOp1
 70
     1
102
RTVSPropertyOp2
 70
     1
102
RTVSPropertyOp3
 70
     1
102
RTVSPropertyOp4
 70
     1
102
RTVSPropertyOp5
 70
     1
102
RTVSPropertyOp6
 70
     1
102
RTVSPropertyOp7
 70
     1
102
RTVSPropertyOp8
 70
     1
102
RTVSPropertyOp9
 70
     1
102
RTVSPropertyOp10
 70
     1
102
RTVSPropertyOp11
 70
     1
102
RTVSPropertyOp12
 70
     1
102
RTVSPropertyOp13
 70
     1
102
RTVSPropertyOp14
 70
     1
102
RTVSPropertyOp15
 70
     1
102
RTVSPropertyOp16
 70
     1
102
RTVSPropertyOp17
 70
     1
102
RTVSPropertyOp18
 70
     1
102
RTVSPropertyOp19
 70
     1
102
RTVSPropertyOp20
 70
     1
102
RTVSPropertyOp21
 70
     1
102
RTVSPropertyOp22
 70
     1
102
RTVSPropertyOp23
 70
     1
102
RTVSPropertyOp24
 70
     1
102
RTVSPropertyOp25
 70
     1
102
RTVSPropertyOp26
 70
     1
102
RTVSPropertyOp27
 70
     1
102
RTVSPropertyOp28
 70
     1
102
RTVSPropertyOp29
 70
     1
102
RTVSPropertyOp30
 70
     1
102
RTVSPropertyOp31
 70
     1
102
RTVSPropertyOp32
 70
     1
102
RTVSPropertyOp33
 70
     1
102
RTVSPropertyOp34
 70
     1
102
RTVSPropertyOp35
 70
     1
102
RTVSPropertyOp36
 70
     1
102
RTVSPropertyOp37
 70
     1
102
RTVSPropertyOp38
 70
     1
102
RTVSPropertyOp39
 70
     1
102
RTVSPropertyOp40
 70
     1
102
RTVSPropertyOp41
 70
     1
102
RTVSPropertyOp42
 70
     1
102
RTVSPropertyOp43
 70
     1
102
RTVSPropertyOp44
 70
     1
102
RTVSPropertyOp45
 70
     1
102
RTVSPropertyOp46
 70
     1
102
RTVSPropertyOp47
 70
     1
102
RTVSPropertyOp48
 70
     1
102
RTVSPropertyOp49
 70
     1
102
RTVSPropertyOp50
 70
     1
102
RTVSPropertyOp51
 70
     0
102
RTVSPropertyOp52
 70
     0
102
RTVSPropertyOp53
 70
     1
102
RTVSPropertyOp54
 70
     1
102
RTVSPropertyOp55
 70
     1
102
RTVSPropertyOp56
 70
     1
102
RTVSPropertyOp57
 70
     1
102
RTVSPropertyOp58
 70
     1
102
RTVSPropertyOp59
 70
     1
102
RTVSPropertyOp60
 70
     1
102
RTVSPropertyOp61
 70
     1
102
RTVSPropertyOp62
 70
     1
  0
XRECORD
  5
3B4
102
{ACAD_REACTORS
330
3B3
102
}
330
3B3
100
AcDbXrecord
280
     1
102
RTVSPost2010Prop28
280
     0
102
RTVSPost2010PropOp28
 70
     1
102
RTVSPost2010Prop29
280
     1
102
RTVSPost2010PropOp29
 70
     1
102
RTVSPost2010Prop30
280
     1
102
RTVSPost2010PropOp30
 70
     1
102
RTVSPost2010Prop31
280
     0
102
RTVSPost2010PropOp31
 70
     1
102
RTVSPost2010Prop32
280
     0
102
RTVSPost2010PropOp32
 70
     1
102
RTVSPost2010Prop33
280
     0
102
RTVSPost2010PropOp33
 70
     1
102
RTVSPost2010Prop34
280
     0
102
RTVSPost2010PropOp34
 70
     1
102
RTVSPost2010Prop35
280
     0
102
RTVSPost2010PropOp35
 70
     1
102
RTVSPost2010Prop36
280
     0
102
RTVSPost2010PropOp36
 70
     1
102
RTVSPost2010Prop37
 90
       50
102
RTVSPost2010PropOp37
 70
     1
102
RTVSPost2010Prop38
140
0.0
102
RTVSPost2010PropOp38
 70
     1
102
RTVSPost2010Prop39
140
1.0
102
RTVSPost2010PropOp39
 70
     1
102
RTVSPost2010Prop40
 90
        0
102
RTVSPost2010PropOp40
 70
     1
102
RTVSPost2010Prop41ColorIndex
 90
       18
102
RTVSPost2010Prop41ColorRGB
 90
        0
102
RTVSPost2010PropOp41
 70
     1
102
RTVSPost2010Prop42
 90
       50
102
RTVSPost2010PropOp42
 70
     1
102
RTVSPost2010Prop43
 90
        3
102
RTVSPost2010PropOp43
 70
     1
102
RTVSPost2010Prop44ColorIndex
 90
        5
102
RTVSPost2010Prop44ColorRGB
 90
      255
102
RTVSPost2010PropOp44
 70
     1
102
RTVSPost2010Prop45
280
     0
102
RTVSPost2010PropOp45
 70
     1
102
RTVSPost2010Prop46
 90
       50
102
RTVSPost2010PropOp46
 70
     1
102
RTVSPost2010Prop47
 90
       50
102
RTVSPost2010PropOp47
 70
     1
102
RTVSPost2010Prop48
 90
       50
102
RTVSPost2010PropOp48
 70
     1
102
RTVSPost2010Prop49
280
     0
102
RTVSPost2010PropOp49
 70
     1
102
RTVSPost2010Prop50
 90
       50
102
RTVSPost2010PropOp50
 70
     1
102
RTVSPost2010Prop51ColorIndex
 90
      256
102
RTVSPost2010Prop51ColorRGB
 90
-16777216
102
RTVSPost2010PropOp51
 70
     0
102
RTVSPost2010Prop52
140
1.0
102
RTVSPost2010PropOp52
 70
     0
102
RTVSPost2010Prop53
 90
        2
102
RTVSPost2010PropOp53
 70
     1
102
RTVSPost2010Prop54
  1
strokes_ogs.tif
102
RTVSPost2010PropOp54
 70
     1
102
RTVSPost2010Prop55
280
     0
102
RTVSPost2010PropOp55
 70
     1
102
RTVSPost2010Prop56
140
1.0
102
RTVSPost2010PropOp56
 70
     1
102
RTVSPost2010Prop57
140
1.0
102
RTVSPost2010PropOp57
 70
     1
102
RTVSPropertyOp0
 70
     1
102
RTVSPropertyOp1
 70
     1
102
RTVSPropertyOp2
 70
     1
102
RTVSPropertyOp3
 70
     1
102
RTVSPropertyOp4
 70
     1
102
RTVSPropertyOp5
 70
     1
102
RTVSPropertyOp6
 70
     1
102
RTVSPropertyOp7
 70
     1
102
RTVSPropertyOp8
 70
     1
102
RTVSPropertyOp9
 70
     1
102
RTVSPropertyOp10
 70
     1
102
RTVSPropertyOp11
 70
     1
102
RTVSPropertyOp12
 70
     1
102
RTVSPropertyOp13
 70
     1
102
RTVSPropertyOp14
 70
     1
102
RTVSPropertyOp15
 70
     1
102
RTVSPropertyOp16
 70
     1
102
RTVSPropertyOp17
 70
     1
102
RTVSPropertyOp18
 70
     1
102
RTVSPropertyOp19
 70
     1
102
RTVSPropertyOp20
 70
     1
102
RTVSPropertyOp21
 70
     1
102
RTVSPropertyOp22
 70
     1
102
RTVSPropertyOp23
 70
     1
102
RTVSPropertyOp24
 70
     1
102
RTVSPropertyOp25
 70
     1
102
RTVSPropertyOp26
 70
     1
102
RTVSPropertyOp27
 70
     1
102
RTVSPropertyOp28
 70
     1
102
RTVSPropertyOp29
 70
     1
102
RTVSPropertyOp30
 70
     1
102
RTVSPropertyOp31
 70
     1
102
RTVSPropertyOp32
 70
     1
102
RTVSPropertyOp33
 70
     1
102
RTVSPropertyOp34
 70
     1
102
RTVSPropertyOp35
 70
     1
102
RTVSPropertyOp36
 70
     1
102
RTVSPropertyOp37
 70
     1
102
RTVSPropertyOp38
 70
     1
102
RTVSPropertyOp39
 70
     1
102
RTVSPropertyOp40
 70
     1
102
RTVSPropertyOp41
 70
     1
102
RTVSPropertyOp42
 70
     1
102
RTVSPropertyOp43
 70
     1
102
RTVSPropertyOp44
 70
     1
102
RTVSPropertyOp45
 70
     1
102
RTVSPropertyOp46
 70
     1
102
RTVSPropertyOp47
 70
     1
102
RTVSPropertyOp48
 70
     1
102
RTVSPropertyOp49
 70
     1
102
RTVSPropertyOp50
 70
     1
102
RTVSPropertyOp51
 70
     0
102
RTVSPropertyOp52
 70
     0
102
RTVSPropertyOp53
 70
     1
102
RTVSPropertyOp54
 70
     1
102
RTVSPropertyOp55
 70
     1
102
RTVSPropertyOp56
 70
     1
102
RTVSPropertyOp57
 70
     1
102
RTVSPropertyOp58
 70
     1
102
RTVSPropertyOp59
 70
     1
102
RTVSPropertyOp60
 70
     1
102
RTVSPropertyOp61
 70
     1
102
RTVSPropertyOp62
 70
     1
  0
XRECORD
  5
3D0
102
{ACAD_REACTORS
330
3CF
102
}
330
3CF
100
AcDbXrecord
280
     1
102
RTVSPost2010Prop28
280
     0
102
RTVSPost2010PropOp28
 70
     1
102
RTVSPost2010Prop29
280
     1
102
RTVSPost2010PropOp29
 70
     1
102
RTVSPost2010Prop30
280
     1
102
RTVSPost2010PropOp30
 70
     1
102
RTVSPost2010Prop31
280
     0
102
RTVSPost2010PropOp31
 70
     1
102
RTVSPost2010Prop32
280
     0
102
RTVSPost2010PropOp32
 70
     1
102
RTVSPost2010Prop33
280
     0
102
RTVSPost2010PropOp33
 70
     1
102
RTVSPost2010Prop34
280
     0
102
RTVSPost2010PropOp34
 70
     1
102
RTVSPost2010Prop35
280
     0
102
RTVSPost2010PropOp35
 70
     1
102
RTVSPost2010Prop36
280
     0
102
RTVSPost2010PropOp36
 70
     1
102
RTVSPost2010Prop37
 90
       50
102
RTVSPost2010PropOp37
 70
     0
102
RTVSPost2010Prop38
140
0.0
102
RTVSPost2010PropOp38
 70
     0
102
RTVSPost2010Prop39
140
1.0
102
RTVSPost2010PropOp39
 70
     0
102
RTVSPost2010Prop40
 90
        0
102
RTVSPost2010PropOp40
 70
     0
102
RTVSPost2010Prop41ColorIndex
 90
       18
102
RTVSPost2010Prop41ColorRGB
 90
        0
102
RTVSPost2010PropOp41
 70
     0
102
RTVSPost2010Prop42
 90
       50
102
RTVSPost2010PropOp42
 70
     0
102
RTVSPost2010Prop43
 90
        3
102
RTVSPost2010PropOp43
 70
     0
102
RTVSPost2010Prop44ColorIndex
 90
        5
102
RTVSPost2010Prop44ColorRGB
 90
      255
102
RTVSPost2010PropOp44
 70
     0
102
RTVSPost2010Prop45
280
     0
102
RTVSPost2010PropOp45
 70
     1
102
RTVSPost2010Prop46
 90
       50
102
RTVSPost2010PropOp46
 70
     0
102
RTVSPost2010Prop47
 90
       50
102
RTVSPost2010PropOp47
 70
     0
102
RTVSPost2010Prop48
 90
       50
102
RTVSPost2010PropOp48
 70
     0
102
RTVSPost2010Prop49
280
     0
102
RTVSPost2010PropOp49
 70
     1
102
RTVSPost2010Prop50
 90
       50
102
RTVSPost2010PropOp50
 70
     0
102
RTVSPost2010Prop51ColorIndex
 90
      256
102
RTVSPost2010Prop51ColorRGB
 90
-16777216
102
RTVSPost2010PropOp51
 70
     0
102
RTVSPost2010Prop52
140
1.0
102
RTVSPost2010PropOp52
 70
     0
102
RTVSPost2010Prop53
 90
        2
102
RTVSPost2010PropOp53
 70
     0
102
RTVSPost2010Prop54
  1
strokes_ogs.tif
102
RTVSPost2010PropOp54
 70
     0
102
RTVSPost2010Prop55
280
     0
102
RTVSPost2010PropOp55
 70
     1
102
RTVSPost2010Prop56
140
1.0
102
RTVSPost2010PropOp56
 70
     0
102
RTVSPost2010Prop57
140
1.0
102
RTVSPost2010PropOp57
 70
     0
102
RTVSPropertyOp0
 70
     0
102
RTVSPropertyOp1
 70
     0
102
RTVSPropertyOp2
 70
     0
102
RTVSPropertyOp3
 70
     0
102
RTVSPropertyOp4
 70
     0
102
RTVSPropertyOp5
 70
     0
102
RTVSPropertyOp6
 70
     0
102
RTVSPropertyOp7
 70
     0
102
RTVSPropertyOp8
 70
     0
102
RTVSPropertyOp9
 70
     0
102
RTVSPropertyOp10
 70
     0
102
RTVSPropertyOp11
 70
     0
102
RTVSPropertyOp12
 70
     0
102
RTVSPropertyOp13
 70
     0
102
RTVSPropertyOp14
 70
     2
102
RTVSPropertyOp15
 70
     0
102
RTVSPropertyOp16
 70
     0
102
RTVSPropertyOp17
 70
     0
102
RTVSPropertyOp18
 70
     0
102
RTVSPropertyOp19
 70
     0
102
RTVSPropertyOp20
 70
     0
102
RTVSPropertyOp21
 70
     0
102
RTVSPropertyOp22
 70
     0
102
RTVSPropertyOp23
 70
     0
102
RTVSPropertyOp24
 70
     0
102
RTVSPropertyOp25
 70
     0
102
RTVSPropertyOp26
 70
     0
102
RTVSPropertyOp27
 70
     0
102
RTVSPropertyOp28
 70
     1
102
RTVSPropertyOp29
 70
     1
102
RTVSPropertyOp30
 70
     1
102
RTVSPropertyOp31
 70
     1
102
RTVSPropertyOp32
 70
     1
102
RTVSPropertyOp33
 70
     1
102
RTVSPropertyOp34
 70
     1
102
RTVSPropertyOp35
 70
     1
102
RTVSPropertyOp36
 70
     1
102
RTVSPropertyOp37
 70
     0
102
RTVSPropertyOp38
 70
     0
102
RTVSPropertyOp39
 70
     0
102
RTVSPropertyOp40
 70
     0
102
RTVSPropertyOp41
 70
     0
102
RTVSPropertyOp42
 70
     0
102
RTVSPropertyOp43
 70
     0
102
RTVSPropertyOp44
 70
     0
102
RTVSPropertyOp45
 70
     1
102
RTVSPropertyOp46
 70
     0
102
RTVSPropertyOp47
 70
     0
102
RTVSPropertyOp48
 70
     0
102
RTVSPropertyOp49
 70
     1
102
RTVSPropertyOp50
 70
     0
102
RTVSPropertyOp51
 70
     0
102
RTVSPropertyOp52
 70
     0
102
RTVSPropertyOp53
 70
     0
102
RTVSPropertyOp54
 70
     0
102
RTVSPropertyOp55
 70
     1
102
RTVSPropertyOp56
 70
     0
102
RTVSPropertyOp57
 70
     0
102
RTVSPropertyOp58
 70
     0
102
RTVSPropertyOp59
 70
     0
102
RTVSPropertyOp60
 70
     0
102
RTVSPropertyOp61
 70
     0
102
RTVSPropertyOp62
 70
     0
  0
XRECORD
  5
3C0
102
{ACAD_REACTORS
330
3BF
102
}
330
3BF
100
AcDbXrecord
280
     1
102
RTVSPost2010Prop28
280
     0
102
RTVSPost2010PropOp28
 70
     1
102
RTVSPost2010Prop29
280
     1
102
RTVSPost2010PropOp29
 70
     1
102
RTVSPost2010Prop30
280
     1
102
RTVSPost2010PropOp30
 70
     1
102
RTVSPost2010Prop31
280
     0
102
RTVSPost2010PropOp31
 70
     1
102
RTVSPost2010Prop32
280
     0
102
RTVSPost2010PropOp32
 70
     1
102
RTVSPost2010Prop33
280
     0
102
RTVSPost2010PropOp33
 70
     1
102
RTVSPost2010Prop34
280
     0
102
RTVSPost2010PropOp34
 70
     1
102
RTVSPost2010Prop35
280
     0
102
RTVSPost2010PropOp35
 70
     1
102
RTVSPost2010Prop36
280
     0
102
RTVSPost2010PropOp36
 70
     1
102
RTVSPost2010Prop37
 90
       50
102
RTVSPost2010PropOp37
 70
     1
102
RTVSPost2010Prop38
140
0.0
102
RTVSPost2010PropOp38
 70
     1
102
RTVSPost2010Prop39
140
1.0
102
RTVSPost2010PropOp39
 70
     1
102
RTVSPost2010Prop40
 90
        0
102
RTVSPost2010PropOp40
 70
     1
102
RTVSPost2010Prop41ColorIndex
 90
       18
102
RTVSPost2010Prop41ColorRGB
 90
        0
102
RTVSPost2010PropOp41
 70
     1
102
RTVSPost2010Prop42
 90
       50
102
RTVSPost2010PropOp42
 70
     1
102
RTVSPost2010Prop43
 90
        3
102
RTVSPost2010PropOp43
 70
     1
102
RTVSPost2010Prop44ColorIndex
 90
        5
102
RTVSPost2010Prop44ColorRGB
 90
      255
102
RTVSPost2010PropOp44
 70
     1
102
RTVSPost2010Prop45
280
     0
102
RTVSPost2010PropOp45
 70
     1
102
RTVSPost2010Prop46
 90
       50
102
RTVSPost2010PropOp46
 70
     1
102
RTVSPost2010Prop47
 90
       50
102
RTVSPost2010PropOp47
 70
     1
102
RTVSPost2010Prop48
 90
       50
102
RTVSPost2010PropOp48
 70
     1
102
RTVSPost2010Prop49
280
     0
102
RTVSPost2010PropOp49
 70
     1
102
RTVSPost2010Prop50
 90
       50
102
RTVSPost2010PropOp50
 70
     1
102
RTVSPost2010Prop51ColorIndex
 90
      256
102
RTVSPost2010Prop51ColorRGB
 90
-16777216
102
RTVSPost2010PropOp51
 70
     0
102
RTVSPost2010Prop52
140
1.0
102
RTVSPost2010PropOp52
 70
     0
102
RTVSPost2010Prop53
 90
        2
102
RTVSPost2010PropOp53
 70
     1
102
RTVSPost2010Prop54
  1
strokes_ogs.tif
102
RTVSPost2010PropOp54
 70
     1
102
RTVSPost2010Prop55
280
     0
102
RTVSPost2010PropOp55
 70
     1
102
RTVSPost2010Prop56
140
1.0
102
RTVSPost2010PropOp56
 70
     1
102
RTVSPost2010Prop57
140
1.0
102
RTVSPost2010PropOp57
 70
     1
102
RTVSPropertyOp0
 70
     1
102
RTVSPropertyOp1
 70
     1
102
RTVSPropertyOp2
 70
     1
102
RTVSPropertyOp3
 70
     1
102
RTVSPropertyOp4
 70
     1
102
RTVSPropertyOp5
 70
     1
102
RTVSPropertyOp6
 70
     1
102
RTVSPropertyOp7
 70
     1
102
RTVSPropertyOp8
 70
     1
102
RTVSPropertyOp9
 70
     1
102
RTVSPropertyOp10
 70
     1
102
RTVSPropertyOp11
 70
     1
102
RTVSPropertyOp12
 70
     1
102
RTVSPropertyOp13
 70
     1
102
RTVSPropertyOp14
 70
     1
102
RTVSPropertyOp15
 70
     1
102
RTVSPropertyOp16
 70
     1
102
RTVSPropertyOp17
 70
     1
102
RTVSPropertyOp18
 70
     1
102
RTVSPropertyOp19
 70
     1
102
RTVSPropertyOp20
 70
     1
102
RTVSPropertyOp21
 70
     1
102
RTVSPropertyOp22
 70
     1
102
RTVSPropertyOp23
 70
     1
102
RTVSPropertyOp24
 70
     1
102
RTVSPropertyOp25
 70
     1
102
RTVSPropertyOp26
 70
     1
102
RTVSPropertyOp27
 70
     1
102
RTVSPropertyOp28
 70
     1
102
RTVSPropertyOp29
 70
     1
102
RTVSPropertyOp30
 70
     1
102
RTVSPropertyOp31
 70
     1
102
RTVSPropertyOp32
 70
     1
102
RTVSPropertyOp33
 70
     1
102
RTVSPropertyOp34
 70
     1
102
RTVSPropertyOp35
 70
     1
102
RTVSPropertyOp36
 70
     1
102
RTVSPropertyOp37
 70
     1
102
RTVSPropertyOp38
 70
     1
102
RTVSPropertyOp39
 70
     1
102
RTVSPropertyOp40
 70
     1
102
RTVSPropertyOp41
 70
     1
102
RTVSPropertyOp42
 70
     1
102
RTVSPropertyOp43
 70
     1
102
RTVSPropertyOp44
 70
     1
102
RTVSPropertyOp45
 70
     1
102
RTVSPropertyOp46
 70
     1
102
RTVSPropertyOp47
 70
     1
102
RTVSPropertyOp48
 70
     1
102
RTVSPropertyOp49
 70
     1
102
RTVSPropertyOp50
 70
     1
102
RTVSPropertyOp51
 70
     0
102
RTVSPropertyOp52
 70
     0
102
RTVSPropertyOp53
 70
     1
102
RTVSPropertyOp54
 70
     1
102
RTVSPropertyOp55
 70
     1
102
RTVSPropertyOp56
 70
     1
102
RTVSPropertyOp57
 70
     1
102
RTVSPropertyOp58
 70
     1
102
RTVSPropertyOp59
 70
     1
102
RTVSPropertyOp60
 70
     1
102
RTVSPropertyOp61
 70
     1
102
RTVSPropertyOp62
 70
     1
  0
XRECORD
  5
3D2
102
{ACAD_REACTORS
330
3D1
102
}
330
3D1
100
AcDbXrecord
280
     1
102
RTVSPost2010Prop28
280
     0
102
RTVSPost2010PropOp28
 70
     1
102
RTVSPost2010Prop29
280
     1
102
RTVSPost2010PropOp29
 70
     1
102
RTVSPost2010Prop30
280
     1
102
RTVSPost2010PropOp30
 70
     1
102
RTVSPost2010Prop31
280
     0
102
RTVSPost2010PropOp31
 70
     1
102
RTVSPost2010Prop32
280
     0
102
RTVSPost2010PropOp32
 70
     1
102
RTVSPost2010Prop33
280
     0
102
RTVSPost2010PropOp33
 70
     1
102
RTVSPost2010Prop34
280
     0
102
RTVSPost2010PropOp34
 70
     1
102
RTVSPost2010Prop35
280
     0
102
RTVSPost2010PropOp35
 70
     1
102
RTVSPost2010Prop36
280
     0
102
RTVSPost2010PropOp36
 70
     1
102
RTVSPost2010Prop37
 90
       50
102
RTVSPost2010PropOp37
 70
     0
102
RTVSPost2010Prop38
140
0.0
102
RTVSPost2010PropOp38
 70
     0
102
RTVSPost2010Prop39
140
1.0
102
RTVSPost2010PropOp39
 70
     0
102
RTVSPost2010Prop40
 90
        0
102
RTVSPost2010PropOp40
 70
     0
102
RTVSPost2010Prop41ColorIndex
 90
       18
102
RTVSPost2010Prop41ColorRGB
 90
        0
102
RTVSPost2010PropOp41
 70
     0
102
RTVSPost2010Prop42
 90
       50
102
RTVSPost2010PropOp42
 70
     0
102
RTVSPost2010Prop43
 90
        3
102
RTVSPost2010PropOp43
 70
     0
102
RTVSPost2010Prop44ColorIndex
 90
        5
102
RTVSPost2010Prop44ColorRGB
 90
      255
102
RTVSPost2010PropOp44
 70
     0
102
RTVSPost2010Prop45
280
     0
102
RTVSPost2010PropOp45
 70
     1
102
RTVSPost2010Prop46
 90
       50
102
RTVSPost2010PropOp46
 70
     0
102
RTVSPost2010Prop47
 90
       50
102
RTVSPost2010PropOp47
 70
     0
102
RTVSPost2010Prop48
 90
       50
102
RTVSPost2010PropOp48
 70
     0
102
RTVSPost2010Prop49
280
     0
102
RTVSPost2010PropOp49
 70
     1
102
RTVSPost2010Prop50
 90
       50
102
RTVSPost2010PropOp50
 70
     0
102
RTVSPost2010Prop51ColorIndex
 90
      256
102
RTVSPost2010Prop51ColorRGB
 90
-16777216
102
RTVSPost2010PropOp51
 70
     0
102
RTVSPost2010Prop52
140
1.0
102
RTVSPost2010PropOp52
 70
     0
102
RTVSPost2010Prop53
 90
        2
102
RTVSPost2010PropOp53
 70
     0
102
RTVSPost2010Prop54
  1
strokes_ogs.tif
102
RTVSPost2010PropOp54
 70
     0
102
RTVSPost2010Prop55
280
     0
102
RTVSPost2010PropOp55
 70
     1
102
RTVSPost2010Prop56
140
1.0
102
RTVSPost2010PropOp56
 70
     0
102
RTVSPost2010Prop57
140
1.0
102
RTVSPost2010PropOp57
 70
     0
102
RTVSPropertyOp0
 70
     0
102
RTVSPropertyOp1
 70
     0
102
RTVSPropertyOp2
 70
     0
102
RTVSPropertyOp3
 70
     0
102
RTVSPropertyOp4
 70
     0
102
RTVSPropertyOp5
 70
     0
102
RTVSPropertyOp6
 70
     0
102
RTVSPropertyOp7
 70
     0
102
RTVSPropertyOp8
 70
     0
102
RTVSPropertyOp9
 70
     0
102
RTVSPropertyOp10
 70
     0
102
RTVSPropertyOp11
 70
     0
102
RTVSPropertyOp12
 70
     0
102
RTVSPropertyOp13
 70
     0
102
RTVSPropertyOp14
 70
     2
102
RTVSPropertyOp15
 70
     0
102
RTVSPropertyOp16
 70
     0
102
RTVSPropertyOp17
 70
     0
102
RTVSPropertyOp18
 70
     0
102
RTVSPropertyOp19
 70
     0
102
RTVSPropertyOp20
 70
     0
102
RTVSPropertyOp21
 70
     0
102
RTVSPropertyOp22
 70
     0
102
RTVSPropertyOp23
 70
     0
102
RTVSPropertyOp24
 70
     0
102
RTVSPropertyOp25
 70
     0
102
RTVSPropertyOp26
 70
     0
102
RTVSPropertyOp27
 70
     0
102
RTVSPropertyOp28
 70
     1
102
RTVSPropertyOp29
 70
     1
102
RTVSPropertyOp30
 70
     1
102
RTVSPropertyOp31
 70
     1
102
RTVSPropertyOp32
 70
     1
102
RTVSPropertyOp33
 70
     1
102
RTVSPropertyOp34
 70
     1
102
RTVSPropertyOp35
 70
     1
102
RTVSPropertyOp36
 70
     1
102
RTVSPropertyOp37
 70
     0
102
RTVSPropertyOp38
 70
     0
102
RTVSPropertyOp39
 70
     0
102
RTVSPropertyOp40
 70
     0
102
RTVSPropertyOp41
 70
     0
102
RTVSPropertyOp42
 70
     0
102
RTVSPropertyOp43
 70
     0
102
RTVSPropertyOp44
 70
     0
102
RTVSPropertyOp45
 70
     1
102
RTVSPropertyOp46
 70
     0
102
RTVSPropertyOp47
 70
     0
102
RTVSPropertyOp48
 70
     0
102
RTVSPropertyOp49
 70
     1
102
RTVSPropertyOp50
 70
     0
102
RTVSPropertyOp51
 70
     0
102
RTVSPropertyOp52
 70
     0
102
RTVSPropertyOp53
 70
     0
102
RTVSPropertyOp54
 70
     0
102
RTVSPropertyOp55
 70
     1
102
RTVSPropertyOp56
 70
     0
102
RTVSPropertyOp57
 70
     0
102
RTVSPropertyOp58
 70
     0
102
RTVSPropertyOp59
 70
     0
102
RTVSPropertyOp60
 70
     0
102
RTVSPropertyOp61
 70
     0
102
RTVSPropertyOp62
 70
     0
  0
XRECORD
  5
3B8
102
{ACAD_REACTORS
330
3B7
102
}
330
3B7
100
AcDbXrecord
280
     1
102
RTVSPost2010Prop28
280
     0
102
RTVSPost2010PropOp28
 70
     1
102
RTVSPost2010Prop29
280
     1
102
RTVSPost2010PropOp29
 70
     1
102
RTVSPost2010Prop30
280
     1
102
RTVSPost2010PropOp30
 70
     1
102
RTVSPost2010Prop31
280
     0
102
RTVSPost2010PropOp31
 70
     1
102
RTVSPost2010Prop32
280
     0
102
RTVSPost2010PropOp32
 70
     1
102
RTVSPost2010Prop33
280
     0
102
RTVSPost2010PropOp33
 70
     1
102
RTVSPost2010Prop34
280
     0
102
RTVSPost2010PropOp34
 70
     1
102
RTVSPost2010Prop35
280
     0
102
RTVSPost2010PropOp35
 70
     1
102
RTVSPost2010Prop36
280
     0
102
RTVSPost2010PropOp36
 70
     1
102
RTVSPost2010Prop37
 90
       50
102
RTVSPost2010PropOp37
 70
     1
102
RTVSPost2010Prop38
140
0.0
102
RTVSPost2010PropOp38
 70
     1
102
RTVSPost2010Prop39
140
1.0
102
RTVSPost2010PropOp39
 70
     1
102
RTVSPost2010Prop40
 90
        0
102
RTVSPost2010PropOp40
 70
     1
102
RTVSPost2010Prop41ColorIndex
 90
       18
102
RTVSPost2010Prop41ColorRGB
 90
        0
102
RTVSPost2010PropOp41
 70
     1
102
RTVSPost2010Prop42
 90
       50
102
RTVSPost2010PropOp42
 70
     1
102
RTVSPost2010Prop43
 90
        3
102
RTVSPost2010PropOp43
 70
     1
102
RTVSPost2010Prop44ColorIndex
 90
        5
102
RTVSPost2010Prop44ColorRGB
 90
      255
102
RTVSPost2010PropOp44
 70
     1
102
RTVSPost2010Prop45
280
     0
102
RTVSPost2010PropOp45
 70
     1
102
RTVSPost2010Prop46
 90
       50
102
RTVSPost2010PropOp46
 70
     1
102
RTVSPost2010Prop47
 90
       50
102
RTVSPost2010PropOp47
 70
     1
102
RTVSPost2010Prop48
 90
       50
102
RTVSPost2010PropOp48
 70
     1
102
RTVSPost2010Prop49
280
     0
102
RTVSPost2010PropOp49
 70
     1
102
RTVSPost2010Prop50
 90
       50
102
RTVSPost2010PropOp50
 70
     1
102
RTVSPost2010Prop51ColorIndex
 90
      256
102
RTVSPost2010Prop51ColorRGB
 90
-16777216
102
RTVSPost2010PropOp51
 70
     0
102
RTVSPost2010Prop52
140
1.0
102
RTVSPost2010PropOp52
 70
     0
102
RTVSPost2010Prop53
 90
        2
102
RTVSPost2010PropOp53
 70
     1
102
RTVSPost2010Prop54
  1
strokes_ogs.tif
102
RTVSPost2010PropOp54
 70
     1
102
RTVSPost2010Prop55
280
     0
102
RTVSPost2010PropOp55
 70
     1
102
RTVSPost2010Prop56
140
1.0
102
RTVSPost2010PropOp56
 70
     1
102
RTVSPost2010Prop57
140
1.0
102
RTVSPost2010PropOp57
 70
     1
102
RTVSPropertyOp0
 70
     1
102
RTVSPropertyOp1
 70
     1
102
RTVSPropertyOp2
 70
     1
102
RTVSPropertyOp3
 70
     1
102
RTVSPropertyOp4
 70
     1
102
RTVSPropertyOp5
 70
     1
102
RTVSPropertyOp6
 70
     1
102
RTVSPropertyOp7
 70
     1
102
RTVSPropertyOp8
 70
     1
102
RTVSPropertyOp9
 70
     1
102
RTVSPropertyOp10
 70
     1
102
RTVSPropertyOp11
 70
     1
102
RTVSPropertyOp12
 70
     1
102
RTVSPropertyOp13
 70
     1
102
RTVSPropertyOp14
 70
     1
102
RTVSPropertyOp15
 70
     1
102
RTVSPropertyOp16
 70
     1
102
RTVSPropertyOp17
 70
     1
102
RTVSPropertyOp18
 70
     1
102
RTVSPropertyOp19
 70
     1
102
RTVSPropertyOp20
 70
     1
102
RTVSPropertyOp21
 70
     1
102
RTVSPropertyOp22
 70
     1
102
RTVSPropertyOp23
 70
     1
102
RTVSPropertyOp24
 70
     1
102
RTVSPropertyOp25
 70
     1
102
RTVSPropertyOp26
 70
     1
102
RTVSPropertyOp27
 70
     1
102
RTVSPropertyOp28
 70
     1
102
RTVSPropertyOp29
 70
     1
102
RTVSPropertyOp30
 70
     1
102
RTVSPropertyOp31
 70
     1
102
RTVSPropertyOp32
 70
     1
102
RTVSPropertyOp33
 70
     1
102
RTVSPropertyOp34
 70
     1
102
RTVSPropertyOp35
 70
     1
102
RTVSPropertyOp36
 70
     1
102
RTVSPropertyOp37
 70
     1
102
RTVSPropertyOp38
 70
     1
102
RTVSPropertyOp39
 70
     1
102
RTVSPropertyOp40
 70
     1
102
RTVSPropertyOp41
 70
     1
102
RTVSPropertyOp42
 70
     1
102
RTVSPropertyOp43
 70
     1
102
RTVSPropertyOp44
 70
     1
102
RTVSPropertyOp45
 70
     1
102
RTVSPropertyOp46
 70
     1
102
RTVSPropertyOp47
 70
     1
102
RTVSPropertyOp48
 70
     1
102
RTVSPropertyOp49
 70
     1
102
RTVSPropertyOp50
 70
     1
102
RTVSPropertyOp51
 70
     0
102
RTVSPropertyOp52
 70
     0
102
RTVSPropertyOp53
 70
     1
102
RTVSPropertyOp54
 70
     1
102
RTVSPropertyOp55
 70
     1
102
RTVSPropertyOp56
 70
     1
102
RTVSPropertyOp57
 70
     1
102
RTVSPropertyOp58
 70
     1
102
RTVSPropertyOp59
 70
     1
102
RTVSPropertyOp60
 70
     1
102
RTVSPropertyOp61
 70
     1
102
RTVSPropertyOp62
 70
     1
  0
XRECORD
  5
3CE
102
{ACAD_REACTORS
330
3CD
102
}
330
3CD
100
AcDbXrecord
280
     1
102
RTVSPost2010Prop28
280
     0
102
RTVSPost2010PropOp28
 70
     1
102
RTVSPost2010Prop29
280
     1
102
RTVSPost2010PropOp29
 70
     1
102
RTVSPost2010Prop30
280
     1
102
RTVSPost2010PropOp30
 70
     1
102
RTVSPost2010Prop31
280
     0
102
RTVSPost2010PropOp31
 70
     1
102
RTVSPost2010Prop32
280
     0
102
RTVSPost2010PropOp32
 70
     1
102
RTVSPost2010Prop33
280
     0
102
RTVSPost2010PropOp33
 70
     1
102
RTVSPost2010Prop34
280
     0
102
RTVSPost2010PropOp34
 70
     1
102
RTVSPost2010Prop35
280
     0
102
RTVSPost2010PropOp35
 70
     1
102
RTVSPost2010Prop36
280
     0
102
RTVSPost2010PropOp36
 70
     1
102
RTVSPost2010Prop37
 90
       50
102
RTVSPost2010PropOp37
 70
     1
102
RTVSPost2010Prop38
140
0.0
102
RTVSPost2010PropOp38
 70
     1
102
RTVSPost2010Prop39
140
1.0
102
RTVSPost2010PropOp39
 70
     1
102
RTVSPost2010Prop40
 90
        0
102
RTVSPost2010PropOp40
 70
     1
102
RTVSPost2010Prop41ColorIndex
 90
       18
102
RTVSPost2010Prop41ColorRGB
 90
        0
102
RTVSPost2010PropOp41
 70
     1
102
RTVSPost2010Prop42
 90
       50
102
RTVSPost2010PropOp42
 70
     1
102
RTVSPost2010Prop43
 90
        3
102
RTVSPost2010PropOp43
 70
     1
102
RTVSPost2010Prop44ColorIndex
 90
        5
102
RTVSPost2010Prop44ColorRGB
 90
      255
102
RTVSPost2010PropOp44
 70
     1
102
RTVSPost2010Prop45
280
     0
102
RTVSPost2010PropOp45
 70
     1
102
RTVSPost2010Prop46
 90
       50
102
RTVSPost2010PropOp46
 70
     1
102
RTVSPost2010Prop47
 90
       50
102
RTVSPost2010PropOp47
 70
     1
102
RTVSPost2010Prop48
 90
       50
102
RTVSPost2010PropOp48
 70
     1
102
RTVSPost2010Prop49
280
     0
102
RTVSPost2010PropOp49
 70
     1
102
RTVSPost2010Prop50
 90
       50
102
RTVSPost2010PropOp50
 70
     1
102
RTVSPost2010Prop51ColorIndex
 90
      256
102
RTVSPost2010Prop51ColorRGB
 90
-16777216
102
RTVSPost2010PropOp51
 70
     0
102
RTVSPost2010Prop52
140
1.0
102
RTVSPost2010PropOp52
 70
     0
102
RTVSPost2010Prop53
 90
        2
102
RTVSPost2010PropOp53
 70
     1
102
RTVSPost2010Prop54
  1
strokes_ogs.tif
102
RTVSPost2010PropOp54
 70
     1
102
RTVSPost2010Prop55
280
     0
102
RTVSPost2010PropOp55
 70
     1
102
RTVSPost2010Prop56
140
1.0
102
RTVSPost2010PropOp56
 70
     1
102
RTVSPost2010Prop57
140
1.0
102
RTVSPost2010PropOp57
 70
     1
102
RTVSPropertyOp0
 70
     1
102
RTVSPropertyOp1
 70
     1
102
RTVSPropertyOp2
 70
     1
102
RTVSPropertyOp3
 70
     1
102
RTVSPropertyOp4
 70
     1
102
RTVSPropertyOp5
 70
     1
102
RTVSPropertyOp6
 70
     1
102
RTVSPropertyOp7
 70
     1
102
RTVSPropertyOp8
 70
     1
102
RTVSPropertyOp9
 70
     1
102
RTVSPropertyOp10
 70
     1
102
RTVSPropertyOp11
 70
     1
102
RTVSPropertyOp12
 70
     1
102
RTVSPropertyOp13
 70
     1
102
RTVSPropertyOp14
 70
     1
102
RTVSPropertyOp15
 70
     1
102
RTVSPropertyOp16
 70
     1
102
RTVSPropertyOp17
 70
     1
102
RTVSPropertyOp18
 70
     1
102
RTVSPropertyOp19
 70
     1
102
RTVSPropertyOp20
 70
     1
102
RTVSPropertyOp21
 70
     1
102
RTVSPropertyOp22
 70
     1
102
RTVSPropertyOp23
 70
     1
102
RTVSPropertyOp24
 70
     1
102
RTVSPropertyOp25
 70
     1
102
RTVSPropertyOp26
 70
     1
102
RTVSPropertyOp27
 70
     1
102
RTVSPropertyOp28
 70
     1
102
RTVSPropertyOp29
 70
     1
102
RTVSPropertyOp30
 70
     1
102
RTVSPropertyOp31
 70
     1
102
RTVSPropertyOp32
 70
     1
102
RTVSPropertyOp33
 70
     1
102
RTVSPropertyOp34
 70
     1
102
RTVSPropertyOp35
 70
     1
102
RTVSPropertyOp36
 70
     1
102
RTVSPropertyOp37
 70
     1
102
RTVSPropertyOp38
 70
     1
102
RTVSPropertyOp39
 70
     1
102
RTVSPropertyOp40
 70
     1
102
RTVSPropertyOp41
 70
     1
102
RTVSPropertyOp42
 70
     1
102
RTVSPropertyOp43
 70
     1
102
RTVSPropertyOp44
 70
     1
102
RTVSPropertyOp45
 70
     1
102
RTVSPropertyOp46
 70
     1
102
RTVSPropertyOp47
 70
     1
102
RTVSPropertyOp48
 70
     1
102
RTVSPropertyOp49
 70
     1
102
RTVSPropertyOp50
 70
     1
102
RTVSPropertyOp51
 70
     0
102
RTVSPropertyOp52
 70
     0
102
RTVSPropertyOp53
 70
     1
102
RTVSPropertyOp54
 70
     1
102
RTVSPropertyOp55
 70
     1
102
RTVSPropertyOp56
 70
     1
102
RTVSPropertyOp57
 70
     1
102
RTVSPropertyOp58
 70
     1
102
RTVSPropertyOp59
 70
     1
102
RTVSPropertyOp60
 70
     1
102
RTVSPropertyOp61
 70
     1
102
RTVSPropertyOp62
 70
     1
  0
XRECORD
  5
3CC
102
{ACAD_REACTORS
330
3CB
102
}
330
3CB
100
AcDbXrecord
280
     1
102
RTVSPost2010Prop28
280
     0
102
RTVSPost2010PropOp28
 70
     1
102
RTVSPost2010Prop29
280
     1
102
RTVSPost2010PropOp29
 70
     1
102
RTVSPost2010Prop30
280
     1
102
RTVSPost2010PropOp30
 70
     1
102
RTVSPost2010Prop31
280
     0
102
RTVSPost2010PropOp31
 70
     1
102
RTVSPost2010Prop32
280
     0
102
RTVSPost2010PropOp32
 70
     1
102
RTVSPost2010Prop33
280
     0
102
RTVSPost2010PropOp33
 70
     1
102
RTVSPost2010Prop34
280
     0
102
RTVSPost2010PropOp34
 70
     1
102
RTVSPost2010Prop35
280
     0
102
RTVSPost2010PropOp35
 70
     1
102
RTVSPost2010Prop36
280
     0
102
RTVSPost2010PropOp36
 70
     1
102
RTVSPost2010Prop37
 90
       50
102
RTVSPost2010PropOp37
 70
     1
102
RTVSPost2010Prop38
140
0.0
102
RTVSPost2010PropOp38
 70
     1
102
RTVSPost2010Prop39
140
1.0
102
RTVSPost2010PropOp39
 70
     1
102
RTVSPost2010Prop40
 90
        0
102
RTVSPost2010PropOp40
 70
     1
102
RTVSPost2010Prop41ColorIndex
 90
       18
102
RTVSPost2010Prop41ColorRGB
 90
        0
102
RTVSPost2010PropOp41
 70
     1
102
RTVSPost2010Prop42
 90
       50
102
RTVSPost2010PropOp42
 70
     1
102
RTVSPost2010Prop43
 90
        3
102
RTVSPost2010PropOp43
 70
     1
102
RTVSPost2010Prop44ColorIndex
 90
        5
102
RTVSPost2010Prop44ColorRGB
 90
      255
102
RTVSPost2010PropOp44
 70
     1
102
RTVSPost2010Prop45
280
     0
102
RTVSPost2010PropOp45
 70
     1
102
RTVSPost2010Prop46
 90
       50
102
RTVSPost2010PropOp46
 70
     1
102
RTVSPost2010Prop47
 90
       50
102
RTVSPost2010PropOp47
 70
     1
102
RTVSPost2010Prop48
 90
       50
102
RTVSPost2010PropOp48
 70
     1
102
RTVSPost2010Prop49
280
     0
102
RTVSPost2010PropOp49
 70
     1
102
RTVSPost2010Prop50
 90
       50
102
RTVSPost2010PropOp50
 70
     1
102
RTVSPost2010Prop51ColorIndex
 90
      256
102
RTVSPost2010Prop51ColorRGB
 90
-16777216
102
RTVSPost2010PropOp51
 70
     0
102
RTVSPost2010Prop52
140
1.0
102
RTVSPost2010PropOp52
 70
     0
102
RTVSPost2010Prop53
 90
        2
102
RTVSPost2010PropOp53
 70
     1
102
RTVSPost2010Prop54
  1
strokes_ogs.tif
102
RTVSPost2010PropOp54
 70
     1
102
RTVSPost2010Prop55
280
     0
102
RTVSPost2010PropOp55
 70
     1
102
RTVSPost2010Prop56
140
1.0
102
RTVSPost2010PropOp56
 70
     1
102
RTVSPost2010Prop57
140
1.0
102
RTVSPost2010PropOp57
 70
     1
102
RTVSPropertyOp0
 70
     1
102
RTVSPropertyOp1
 70
     1
102
RTVSPropertyOp2
 70
     1
102
RTVSPropertyOp3
 70
     1
102
RTVSPropertyOp4
 70
     1
102
RTVSPropertyOp5
 70
     1
102
RTVSPropertyOp6
 70
     1
102
RTVSPropertyOp7
 70
     1
102
RTVSPropertyOp8
 70
     1
102
RTVSPropertyOp9
 70
     1
102
RTVSPropertyOp10
 70
     1
102
RTVSPropertyOp11
 70
     1
102
RTVSPropertyOp12
 70
     1
102
RTVSPropertyOp13
 70
     1
102
RTVSPropertyOp14
 70
     1
102
RTVSPropertyOp15
 70
     1
102
RTVSPropertyOp16
 70
     1
102
RTVSPropertyOp17
 70
     1
102
RTVSPropertyOp18
 70
     1
102
RTVSPropertyOp19
 70
     1
102
RTVSPropertyOp20
 70
     1
102
RTVSPropertyOp21
 70
     1
102
RTVSPropertyOp22
 70
     1
102
RTVSPropertyOp23
 70
     1
102
RTVSPropertyOp24
 70
     1
102
RTVSPropertyOp25
 70
     1
102
RTVSPropertyOp26
 70
     1
102
RTVSPropertyOp27
 70
     1
102
RTVSPropertyOp28
 70
     1
102
RTVSPropertyOp29
 70
     1
102
RTVSPropertyOp30
 70
     1
102
RTVSPropertyOp31
 70
     1
102
RTVSPropertyOp32
 70
     1
102
RTVSPropertyOp33
 70
     1
102
RTVSPropertyOp34
 70
     1
102
RTVSPropertyOp35
 70
     1
102
RTVSPropertyOp36
 70
     1
102
RTVSPropertyOp37
 70
     1
102
RTVSPropertyOp38
 70
     1
102
RTVSPropertyOp39
 70
     1
102
RTVSPropertyOp40
 70
     1
102
RTVSPropertyOp41
 70
     1
102
RTVSPropertyOp42
 70
     1
102
RTVSPropertyOp43
 70
     1
102
RTVSPropertyOp44
 70
     1
102
RTVSPropertyOp45
 70
     1
102
RTVSPropertyOp46
 70
     1
102
RTVSPropertyOp47
 70
     1
102
RTVSPropertyOp48
 70
     1
102
RTVSPropertyOp49
 70
     1
102
RTVSPropertyOp50
 70
     1
102
RTVSPropertyOp51
 70
     0
102
RTVSPropertyOp52
 70
     0
102
RTVSPropertyOp53
 70
     1
102
RTVSPropertyOp54
 70
     1
102
RTVSPropertyOp55
 70
     1
102
RTVSPropertyOp56
 70
     1
102
RTVSPropertyOp57
 70
     1
102
RTVSPropertyOp58
 70
     1
102
RTVSPropertyOp59
 70
     1
102
RTVSPropertyOp60
 70
     1
102
RTVSPropertyOp61
 70
     1
102
RTVSPropertyOp62
 70
     1
  0
XRECORD
  5
3C6
102
{ACAD_REACTORS
330
3C5
102
}
330
3C5
100
AcDbXrecord
280
     1
102
RTVSPost2010Prop28
280
     0
102
RTVSPost2010PropOp28
 70
     1
102
RTVSPost2010Prop29
280
     1
102
RTVSPost2010PropOp29
 70
     1
102
RTVSPost2010Prop30
280
     1
102
RTVSPost2010PropOp30
 70
     1
102
RTVSPost2010Prop31
280
     0
102
RTVSPost2010PropOp31
 70
     1
102
RTVSPost2010Prop32
280
     0
102
RTVSPost2010PropOp32
 70
     1
102
RTVSPost2010Prop33
280
     0
102
RTVSPost2010PropOp33
 70
     1
102
RTVSPost2010Prop34
280
     0
102
RTVSPost2010PropOp34
 70
     1
102
RTVSPost2010Prop35
280
     0
102
RTVSPost2010PropOp35
 70
     1
102
RTVSPost2010Prop36
280
     0
102
RTVSPost2010PropOp36
 70
     1
102
RTVSPost2010Prop37
 90
       50
102
RTVSPost2010PropOp37
 70
     1
102
RTVSPost2010Prop38
140
0.0
102
RTVSPost2010PropOp38
 70
     1
102
RTVSPost2010Prop39
140
1.0
102
RTVSPost2010PropOp39
 70
     1
102
RTVSPost2010Prop40
 90
        0
102
RTVSPost2010PropOp40
 70
     1
102
RTVSPost2010Prop41ColorIndex
 90
       18
102
RTVSPost2010Prop41ColorRGB
 90
        0
102
RTVSPost2010PropOp41
 70
     1
102
RTVSPost2010Prop42
 90
       50
102
RTVSPost2010PropOp42
 70
     1
102
RTVSPost2010Prop43
 90
        3
102
RTVSPost2010PropOp43
 70
     1
102
RTVSPost2010Prop44ColorIndex
 90
        5
102
RTVSPost2010Prop44ColorRGB
 90
      255
102
RTVSPost2010PropOp44
 70
     1
102
RTVSPost2010Prop45
280
     0
102
RTVSPost2010PropOp45
 70
     1
102
RTVSPost2010Prop46
 90
       50
102
RTVSPost2010PropOp46
 70
     1
102
RTVSPost2010Prop47
 90
       50
102
RTVSPost2010PropOp47
 70
     1
102
RTVSPost2010Prop48
 90
       50
102
RTVSPost2010PropOp48
 70
     1
102
RTVSPost2010Prop49
280
     0
102
RTVSPost2010PropOp49
 70
     1
102
RTVSPost2010Prop50
 90
       50
102
RTVSPost2010PropOp50
 70
     1
102
RTVSPost2010Prop51ColorIndex
 90
      256
102
RTVSPost2010Prop51ColorRGB
 90
-16777216
102
RTVSPost2010PropOp51
 70
     0
102
RTVSPost2010Prop52
140
1.0
102
RTVSPost2010PropOp52
 70
     0
102
RTVSPost2010Prop53
 90
        2
102
RTVSPost2010PropOp53
 70
     1
102
RTVSPost2010Prop54
  1
strokes_ogs.tif
102
RTVSPost2010PropOp54
 70
     1
102
RTVSPost2010Prop55
280
     0
102
RTVSPost2010PropOp55
 70
     1
102
RTVSPost2010Prop56
140
1.0
102
RTVSPost2010PropOp56
 70
     1
102
RTVSPost2010Prop57
140
1.0
102
RTVSPost2010PropOp57
 70
     1
102
RTVSPropertyOp0
 70
     1
102
RTVSPropertyOp1
 70
     1
102
RTVSPropertyOp2
 70
     1
102
RTVSPropertyOp3
 70
     1
102
RTVSPropertyOp4
 70
     1
102
RTVSPropertyOp5
 70
     1
102
RTVSPropertyOp6
 70
     1
102
RTVSPropertyOp7
 70
     1
102
RTVSPropertyOp8
 70
     1
102
RTVSPropertyOp9
 70
     1
102
RTVSPropertyOp10
 70
     1
102
RTVSPropertyOp11
 70
     1
102
RTVSPropertyOp12
 70
     1
102
RTVSPropertyOp13
 70
     1
102
RTVSPropertyOp14
 70
     1
102
RTVSPropertyOp15
 70
     1
102
RTVSPropertyOp16
 70
     1
102
RTVSPropertyOp17
 70
     1
102
RTVSPropertyOp18
 70
     1
102
RTVSPropertyOp19
 70
     1
102
RTVSPropertyOp20
 70
     1
102
RTVSPropertyOp21
 70
     1
102
RTVSPropertyOp22
 70
     1
102
RTVSPropertyOp23
 70
     1
102
RTVSPropertyOp24
 70
     1
102
RTVSPropertyOp25
 70
     1
102
RTVSPropertyOp26
 70
     1
102
RTVSPropertyOp27
 70
     1
102
RTVSPropertyOp28
 70
     1
102
RTVSPropertyOp29
 70
     1
102
RTVSPropertyOp30
 70
     1
102
RTVSPropertyOp31
 70
     1
102
RTVSPropertyOp32
 70
     1
102
RTVSPropertyOp33
 70
     1
102
RTVSPropertyOp34
 70
     1
102
RTVSPropertyOp35
 70
     1
102
RTVSPropertyOp36
 70
     1
102
RTVSPropertyOp37
 70
     1
102
RTVSPropertyOp38
 70
     1
102
RTVSPropertyOp39
 70
     1
102
RTVSPropertyOp40
 70
     1
102
RTVSPropertyOp41
 70
     1
102
RTVSPropertyOp42
 70
     1
102
RTVSPropertyOp43
 70
     1
102
RTVSPropertyOp44
 70
     1
102
RTVSPropertyOp45
 70
     1
102
RTVSPropertyOp46
 70
     1
102
RTVSPropertyOp47
 70
     1
102
RTVSPropertyOp48
 70
     1
102
RTVSPropertyOp49
 70
     1
102
RTVSPropertyOp50
 70
     1
102
RTVSPropertyOp51
 70
     0
102
RTVSPropertyOp52
 70
     0
102
RTVSPropertyOp53
 70
     1
102
RTVSPropertyOp54
 70
     1
102
RTVSPropertyOp55
 70
     1
102
RTVSPropertyOp56
 70
     1
102
RTVSPropertyOp57
 70
     1
102
RTVSPropertyOp58
 70
     1
102
RTVSPropertyOp59
 70
     1
102
RTVSPropertyOp60
 70
     1
102
RTVSPropertyOp61
 70
     1
102
RTVSPropertyOp62
 70
     1
  0
XRECORD
  5
3C8
102
{ACAD_REACTORS
330
3C7
102
}
330
3C7
100
AcDbXrecord
280
     1
102
RTVSPost2010Prop28
280
     0
102
RTVSPost2010PropOp28
 70
     1
102
RTVSPost2010Prop29
280
     1
102
RTVSPost2010PropOp29
 70
     1
102
RTVSPost2010Prop30
280
     1
102
RTVSPost2010PropOp30
 70
     1
102
RTVSPost2010Prop31
280
     0
102
RTVSPost2010PropOp31
 70
     1
102
RTVSPost2010Prop32
280
     0
102
RTVSPost2010PropOp32
 70
     1
102
RTVSPost2010Prop33
280
     0
102
RTVSPost2010PropOp33
 70
     1
102
RTVSPost2010Prop34
280
     0
102
RTVSPost2010PropOp34
 70
     1
102
RTVSPost2010Prop35
280
     0
102
RTVSPost2010PropOp35
 70
     1
102
RTVSPost2010Prop36
280
     0
102
RTVSPost2010PropOp36
 70
     1
102
RTVSPost2010Prop37
 90
       50
102
RTVSPost2010PropOp37
 70
     1
102
RTVSPost2010Prop38
140
0.0
102
RTVSPost2010PropOp38
 70
     1
102
RTVSPost2010Prop39
140
1.0
102
RTVSPost2010PropOp39
 70
     1
102
RTVSPost2010Prop40
 90
        0
102
RTVSPost2010PropOp40
 70
     1
102
RTVSPost2010Prop41ColorIndex
 90
       18
102
RTVSPost2010Prop41ColorRGB
 90
        0
102
RTVSPost2010PropOp41
 70
     1
102
RTVSPost2010Prop42
 90
       50
102
RTVSPost2010PropOp42
 70
     1
102
RTVSPost2010Prop43
 90
        3
102
RTVSPost2010PropOp43
 70
     1
102
RTVSPost2010Prop44ColorIndex
 90
        5
102
RTVSPost2010Prop44ColorRGB
 90
      255
102
RTVSPost2010PropOp44
 70
     1
102
RTVSPost2010Prop45
280
     0
102
RTVSPost2010PropOp45
 70
     1
102
RTVSPost2010Prop46
 90
       50
102
RTVSPost2010PropOp46
 70
     1
102
RTVSPost2010Prop47
 90
       50
102
RTVSPost2010PropOp47
 70
     1
102
RTVSPost2010Prop48
 90
       50
102
RTVSPost2010PropOp48
 70
     1
102
RTVSPost2010Prop49
280
     0
102
RTVSPost2010PropOp49
 70
     1
102
RTVSPost2010Prop50
 90
       50
102
RTVSPost2010PropOp50
 70
     1
102
RTVSPost2010Prop51ColorIndex
 90
      256
102
RTVSPost2010Prop51ColorRGB
 90
-16777216
102
RTVSPost2010PropOp51
 70
     0
102
RTVSPost2010Prop52
140
1.0
102
RTVSPost2010PropOp52
 70
     0
102
RTVSPost2010Prop53
 90
        2
102
RTVSPost2010PropOp53
 70
     1
102
RTVSPost2010Prop54
  1
strokes_ogs.tif
102
RTVSPost2010PropOp54
 70
     1
102
RTVSPost2010Prop55
280
     0
102
RTVSPost2010PropOp55
 70
     1
102
RTVSPost2010Prop56
140
1.0
102
RTVSPost2010PropOp56
 70
     1
102
RTVSPost2010Prop57
140
1.0
102
RTVSPost2010PropOp57
 70
     1
102
RTVSPropertyOp0
 70
     1
102
RTVSPropertyOp1
 70
     1
102
RTVSPropertyOp2
 70
     1
102
RTVSPropertyOp3
 70
     1
102
RTVSPropertyOp4
 70
     1
102
RTVSPropertyOp5
 70
     1
102
RTVSPropertyOp6
 70
     1
102
RTVSPropertyOp7
 70
     1
102
RTVSPropertyOp8
 70
     1
102
RTVSPropertyOp9
 70
     1
102
RTVSPropertyOp10
 70
     1
102
RTVSPropertyOp11
 70
     1
102
RTVSPropertyOp12
 70
     1
102
RTVSPropertyOp13
 70
     1
102
RTVSPropertyOp14
 70
     1
102
RTVSPropertyOp15
 70
     1
102
RTVSPropertyOp16
 70
     1
102
RTVSPropertyOp17
 70
     1
102
RTVSPropertyOp18
 70
     1
102
RTVSPropertyOp19
 70
     1
102
RTVSPropertyOp20
 70
     1
102
RTVSPropertyOp21
 70
     1
102
RTVSPropertyOp22
 70
     1
102
RTVSPropertyOp23
 70
     1
102
RTVSPropertyOp24
 70
     1
102
RTVSPropertyOp25
 70
     1
102
RTVSPropertyOp26
 70
     1
102
RTVSPropertyOp27
 70
     1
102
RTVSPropertyOp28
 70
     1
102
RTVSPropertyOp29
 70
     1
102
RTVSPropertyOp30
 70
     1
102
RTVSPropertyOp31
 70
     1
102
RTVSPropertyOp32
 70
     1
102
RTVSPropertyOp33
 70
     1
102
RTVSPropertyOp34
 70
     1
102
RTVSPropertyOp35
 70
     1
102
RTVSPropertyOp36
 70
     1
102
RTVSPropertyOp37
 70
     1
102
RTVSPropertyOp38
 70
     1
102
RTVSPropertyOp39
 70
     1
102
RTVSPropertyOp40
 70
     1
102
RTVSPropertyOp41
 70
     1
102
RTVSPropertyOp42
 70
     1
102
RTVSPropertyOp43
 70
     1
102
RTVSPropertyOp44
 70
     1
102
RTVSPropertyOp45
 70
     1
102
RTVSPropertyOp46
 70
     1
102
RTVSPropertyOp47
 70
     1
102
RTVSPropertyOp48
 70
     1
102
RTVSPropertyOp49
 70
     1
102
RTVSPropertyOp50
 70
     1
102
RTVSPropertyOp51
 70
     0
102
RTVSPropertyOp52
 70
     0
102
RTVSPropertyOp53
 70
     1
102
RTVSPropertyOp54
 70
     1
102
RTVSPropertyOp55
 70
     1
102
RTVSPropertyOp56
 70
     1
102
RTVSPropertyOp57
 70
     1
102
RTVSPropertyOp58
 70
     1
102
RTVSPropertyOp59
 70
     1
102
RTVSPropertyOp60
 70
     1
102
RTVSPropertyOp61
 70
     1
102
RTVSPropertyOp62
 70
     1
  0
XRECORD
  5
3BE
102
{ACAD_REACTORS
330
3BD
102
}
330
3BD
100
AcDbXrecord
280
     1
102
RTVSPost2010Prop28
280
     0
102
RTVSPost2010PropOp28
 70
     1
102
RTVSPost2010Prop29
280
     1
102
RTVSPost2010PropOp29
 70
     1
102
RTVSPost2010Prop30
280
     1
102
RTVSPost2010PropOp30
 70
     1
102
RTVSPost2010Prop31
280
     0
102
RTVSPost2010PropOp31
 70
     1
102
RTVSPost2010Prop32
280
     0
102
RTVSPost2010PropOp32
 70
     1
102
RTVSPost2010Prop33
280
     0
102
RTVSPost2010PropOp33
 70
     1
102
RTVSPost2010Prop34
280
     0
102
RTVSPost2010PropOp34
 70
     1
102
RTVSPost2010Prop35
280
     0
102
RTVSPost2010PropOp35
 70
     1
102
RTVSPost2010Prop36
280
     0
102
RTVSPost2010PropOp36
 70
     1
102
RTVSPost2010Prop37
 90
       50
102
RTVSPost2010PropOp37
 70
     1
102
RTVSPost2010Prop38
140
0.0
102
RTVSPost2010PropOp38
 70
     1
102
RTVSPost2010Prop39
140
1.0
102
RTVSPost2010PropOp39
 70
     1
102
RTVSPost2010Prop40
 90
        0
102
RTVSPost2010PropOp40
 70
     1
102
RTVSPost2010Prop41ColorIndex
 90
       18
102
RTVSPost2010Prop41ColorRGB
 90
        0
102
RTVSPost2010PropOp41
 70
     1
102
RTVSPost2010Prop42
 90
       50
102
RTVSPost2010PropOp42
 70
     1
102
RTVSPost2010Prop43
 90
        3
102
RTVSPost2010PropOp43
 70
     1
102
RTVSPost2010Prop44ColorIndex
 90
        5
102
RTVSPost2010Prop44ColorRGB
 90
      255
102
RTVSPost2010PropOp44
 70
     1
102
RTVSPost2010Prop45
280
     0
102
RTVSPost2010PropOp45
 70
     1
102
RTVSPost2010Prop46
 90
       50
102
RTVSPost2010PropOp46
 70
     1
102
RTVSPost2010Prop47
 90
       50
102
RTVSPost2010PropOp47
 70
     1
102
RTVSPost2010Prop48
 90
       50
102
RTVSPost2010PropOp48
 70
     1
102
RTVSPost2010Prop49
280
     0
102
RTVSPost2010PropOp49
 70
     1
102
RTVSPost2010Prop50
 90
       50
102
RTVSPost2010PropOp50
 70
     1
102
RTVSPost2010Prop51ColorIndex
 90
      256
102
RTVSPost2010Prop51ColorRGB
 90
-16777216
102
RTVSPost2010PropOp51
 70
     0
102
RTVSPost2010Prop52
140
1.0
102
RTVSPost2010PropOp52
 70
     0
102
RTVSPost2010Prop53
 90
        2
102
RTVSPost2010PropOp53
 70
     1
102
RTVSPost2010Prop54
  1
strokes_ogs.tif
102
RTVSPost2010PropOp54
 70
     1
102
RTVSPost2010Prop55
280
     0
102
RTVSPost2010PropOp55
 70
     1
102
RTVSPost2010Prop56
140
1.0
102
RTVSPost2010PropOp56
 70
     1
102
RTVSPost2010Prop57
140
1.0
102
RTVSPost2010PropOp57
 70
     1
102
RTVSPropertyOp0
 70
     1
102
RTVSPropertyOp1
 70
     1
102
RTVSPropertyOp2
 70
     1
102
RTVSPropertyOp3
 70
     1
102
RTVSPropertyOp4
 70
     1
102
RTVSPropertyOp5
 70
     1
102
RTVSPropertyOp6
 70
     1
102
RTVSPropertyOp7
 70
     1
102
RTVSPropertyOp8
 70
     1
102
RTVSPropertyOp9
 70
     1
102
RTVSPropertyOp10
 70
     1
102
RTVSPropertyOp11
 70
     1
102
RTVSPropertyOp12
 70
     1
102
RTVSPropertyOp13
 70
     1
102
RTVSPropertyOp14
 70
     1
102
RTVSPropertyOp15
 70
     1
102
RTVSPropertyOp16
 70
     1
102
RTVSPropertyOp17
 70
     1
102
RTVSPropertyOp18
 70
     1
102
RTVSPropertyOp19
 70
     1
102
RTVSPropertyOp20
 70
     1
102
RTVSPropertyOp21
 70
     1
102
RTVSPropertyOp22
 70
     1
102
RTVSPropertyOp23
 70
     1
102
RTVSPropertyOp24
 70
     1
102
RTVSPropertyOp25
 70
     1
102
RTVSPropertyOp26
 70
     1
102
RTVSPropertyOp27
 70
     1
102
RTVSPropertyOp28
 70
     1
102
RTVSPropertyOp29
 70
     1
102
RTVSPropertyOp30
 70
     1
102
RTVSPropertyOp31
 70
     1
102
RTVSPropertyOp32
 70
     1
102
RTVSPropertyOp33
 70
     1
102
RTVSPropertyOp34
 70
     1
102
RTVSPropertyOp35
 70
     1
102
RTVSPropertyOp36
 70
     1
102
RTVSPropertyOp37
 70
     1
102
RTVSPropertyOp38
 70
     1
102
RTVSPropertyOp39
 70
     1
102
RTVSPropertyOp40
 70
     1
102
RTVSPropertyOp41
 70
     1
102
RTVSPropertyOp42
 70
     1
102
RTVSPropertyOp43
 70
     1
102
RTVSPropertyOp44
 70
     1
102
RTVSPropertyOp45
 70
     1
102
RTVSPropertyOp46
 70
     1
102
RTVSPropertyOp47
 70
     1
102
RTVSPropertyOp48
 70
     1
102
RTVSPropertyOp49
 70
     1
102
RTVSPropertyOp50
 70
     1
102
RTVSPropertyOp51
 70
     0
102
RTVSPropertyOp52
 70
     0
102
RTVSPropertyOp53
 70
     1
102
RTVSPropertyOp54
 70
     1
102
RTVSPropertyOp55
 70
     1
102
RTVSPropertyOp56
 70
     1
102
RTVSPropertyOp57
 70
     1
102
RTVSPropertyOp58
 70
     1
102
RTVSPropertyOp59
 70
     1
102
RTVSPropertyOp60
 70
     1
102
RTVSPropertyOp61
 70
     1
102
RTVSPropertyOp62
 70
     1
  0
XRECORD
  5
3B2
102
{ACAD_REACTORS
330
3B1
102
}
330
3B1
100
AcDbXrecord
280
     1
102
RTVSPost2010Prop28
280
     0
102
RTVSPost2010PropOp28
 70
     1
102
RTVSPost2010Prop29
280
     1
102
RTVSPost2010PropOp29
 70
     1
102
RTVSPost2010Prop30
280
     1
102
RTVSPost2010PropOp30
 70
     1
102
RTVSPost2010Prop31
280
     0
102
RTVSPost2010PropOp31
 70
     1
102
RTVSPost2010Prop32
280
     0
102
RTVSPost2010PropOp32
 70
     1
102
RTVSPost2010Prop33
280
     0
102
RTVSPost2010PropOp33
 70
     1
102
RTVSPost2010Prop34
280
     0
102
RTVSPost2010PropOp34
 70
     1
102
RTVSPost2010Prop35
280
     0
102
RTVSPost2010PropOp35
 70
     1
102
RTVSPost2010Prop36
280
     0
102
RTVSPost2010PropOp36
 70
     1
102
RTVSPost2010Prop37
 90
       50
102
RTVSPost2010PropOp37
 70
     1
102
RTVSPost2010Prop38
140
0.0
102
RTVSPost2010PropOp38
 70
     1
102
RTVSPost2010Prop39
140
1.0
102
RTVSPost2010PropOp39
 70
     1
102
RTVSPost2010Prop40
 90
        0
102
RTVSPost2010PropOp40
 70
     1
102
RTVSPost2010Prop41ColorIndex
 90
       18
102
RTVSPost2010Prop41ColorRGB
 90
        0
102
RTVSPost2010PropOp41
 70
     1
102
RTVSPost2010Prop42
 90
       50
102
RTVSPost2010PropOp42
 70
     1
102
RTVSPost2010Prop43
 90
        3
102
RTVSPost2010PropOp43
 70
     1
102
RTVSPost2010Prop44ColorIndex
 90
        5
102
RTVSPost2010Prop44ColorRGB
 90
      255
102
RTVSPost2010PropOp44
 70
     1
102
RTVSPost2010Prop45
280
     0
102
RTVSPost2010PropOp45
 70
     1
102
RTVSPost2010Prop46
 90
       50
102
RTVSPost2010PropOp46
 70
     1
102
RTVSPost2010Prop47
 90
       50
102
RTVSPost2010PropOp47
 70
     1
102
RTVSPost2010Prop48
 90
       50
102
RTVSPost2010PropOp48
 70
     1
102
RTVSPost2010Prop49
280
     0
102
RTVSPost2010PropOp49
 70
     1
102
RTVSPost2010Prop50
 90
       50
102
RTVSPost2010PropOp50
 70
     1
102
RTVSPost2010Prop51ColorIndex
 90
      256
102
RTVSPost2010Prop51ColorRGB
 90
-16777216
102
RTVSPost2010PropOp51
 70
     0
102
RTVSPost2010Prop52
140
1.0
102
RTVSPost2010PropOp52
 70
     0
102
RTVSPost2010Prop53
 90
        2
102
RTVSPost2010PropOp53
 70
     1
102
RTVSPost2010Prop54
  1
strokes_ogs.tif
102
RTVSPost2010PropOp54
 70
     1
102
RTVSPost2010Prop55
280
     0
102
RTVSPost2010PropOp55
 70
     1
102
RTVSPost2010Prop56
140
1.0
102
RTVSPost2010PropOp56
 70
     1
102
RTVSPost2010Prop57
140
1.0
102
RTVSPost2010PropOp57
 70
     1
102
RTVSPropertyOp0
 70
     1
102
RTVSPropertyOp1
 70
     1
102
RTVSPropertyOp2
 70
     1
102
RTVSPropertyOp3
 70
     1
102
RTVSPropertyOp4
 70
     1
102
RTVSPropertyOp5
 70
     1
102
RTVSPropertyOp6
 70
     1
102
RTVSPropertyOp7
 70
     1
102
RTVSPropertyOp8
 70
     1
102
RTVSPropertyOp9
 70
     1
102
RTVSPropertyOp10
 70
     1
102
RTVSPropertyOp11
 70
     1
102
RTVSPropertyOp12
 70
     1
102
RTVSPropertyOp13
 70
     1
102
RTVSPropertyOp14
 70
     1
102
RTVSPropertyOp15
 70
     1
102
RTVSPropertyOp16
 70
     1
102
RTVSPropertyOp17
 70
     1
102
RTVSPropertyOp18
 70
     1
102
RTVSPropertyOp19
 70
     1
102
RTVSPropertyOp20
 70
     1
102
RTVSPropertyOp21
 70
     1
102
RTVSPropertyOp22
 70
     1
102
RTVSPropertyOp23
 70
     1
102
RTVSPropertyOp24
 70
     1
102
RTVSPropertyOp25
 70
     1
102
RTVSPropertyOp26
 70
     1
102
RTVSPropertyOp27
 70
     1
102
RTVSPropertyOp28
 70
     1
102
RTVSPropertyOp29
 70
     1
102
RTVSPropertyOp30
 70
     1
102
RTVSPropertyOp31
 70
     1
102
RTVSPropertyOp32
 70
     1
102
RTVSPropertyOp33
 70
     1
102
RTVSPropertyOp34
 70
     1
102
RTVSPropertyOp35
 70
     1
102
RTVSPropertyOp36
 70
     1
102
RTVSPropertyOp37
 70
     1
102
RTVSPropertyOp38
 70
     1
102
RTVSPropertyOp39
 70
     1
102
RTVSPropertyOp40
 70
     1
102
RTVSPropertyOp41
 70
     1
102
RTVSPropertyOp42
 70
     1
102
RTVSPropertyOp43
 70
     1
102
RTVSPropertyOp44
 70
     1
102
RTVSPropertyOp45
 70
     1
102
RTVSPropertyOp46
 70
     1
102
RTVSPropertyOp47
 70
     1
102
RTVSPropertyOp48
 70
     1
102
RTVSPropertyOp49
 70
     1
102
RTVSPropertyOp50
 70
     1
102
RTVSPropertyOp51
 70
     0
102
RTVSPropertyOp52
 70
     0
102
RTVSPropertyOp53
 70
     1
102
RTVSPropertyOp54
 70
     1
102
RTVSPropertyOp55
 70
     1
102
RTVSPropertyOp56
 70
     1
102
RTVSPropertyOp57
 70
     1
102
RTVSPropertyOp58
 70
     1
102
RTVSPropertyOp59
 70
     1
102
RTVSPropertyOp60
 70
     1
102
RTVSPropertyOp61
 70
     1
102
RTVSPropertyOp62
 70
     1
  0
XRECORD
  5
3CA
102
{ACAD_REACTORS
330
3C9
102
}
330
3C9
100
AcDbXrecord
280
     1
102
RTVSPost2010Prop28
280
     0
102
RTVSPost2010PropOp28
 70
     1
102
RTVSPost2010Prop29
280
     1
102
RTVSPost2010PropOp29
 70
     1
102
RTVSPost2010Prop30
280
     1
102
RTVSPost2010PropOp30
 70
     1
102
RTVSPost2010Prop31
280
     0
102
RTVSPost2010PropOp31
 70
     1
102
RTVSPost2010Prop32
280
     0
102
RTVSPost2010PropOp32
 70
     1
102
RTVSPost2010Prop33
280
     0
102
RTVSPost2010PropOp33
 70
     1
102
RTVSPost2010Prop34
280
     0
102
RTVSPost2010PropOp34
 70
     1
102
RTVSPost2010Prop35
280
     0
102
RTVSPost2010PropOp35
 70
     1
102
RTVSPost2010Prop36
280
     0
102
RTVSPost2010PropOp36
 70
     1
102
RTVSPost2010Prop37
 90
       50
102
RTVSPost2010PropOp37
 70
     1
102
RTVSPost2010Prop38
140
0.0
102
RTVSPost2010PropOp38
 70
     1
102
RTVSPost2010Prop39
140
1.0
102
RTVSPost2010PropOp39
 70
     1
102
RTVSPost2010Prop40
 90
        0
102
RTVSPost2010PropOp40
 70
     1
102
RTVSPost2010Prop41ColorIndex
 90
       18
102
RTVSPost2010Prop41ColorRGB
 90
        0
102
RTVSPost2010PropOp41
 70
     1
102
RTVSPost2010Prop42
 90
       50
102
RTVSPost2010PropOp42
 70
     1
102
RTVSPost2010Prop43
 90
        3
102
RTVSPost2010PropOp43
 70
     1
102
RTVSPost2010Prop44ColorIndex
 90
        5
102
RTVSPost2010Prop44ColorRGB
 90
      255
102
RTVSPost2010PropOp44
 70
     1
102
RTVSPost2010Prop45
280
     0
102
RTVSPost2010PropOp45
 70
     1
102
RTVSPost2010Prop46
 90
       50
102
RTVSPost2010PropOp46
 70
     1
102
RTVSPost2010Prop47
 90
       50
102
RTVSPost2010PropOp47
 70
     1
102
RTVSPost2010Prop48
 90
       50
102
RTVSPost2010PropOp48
 70
     1
102
RTVSPost2010Prop49
280
     0
102
RTVSPost2010PropOp49
 70
     1
102
RTVSPost2010Prop50
 90
       50
102
RTVSPost2010PropOp50
 70
     1
102
RTVSPost2010Prop51ColorIndex
 90
      256
102
RTVSPost2010Prop51ColorRGB
 90
-16777216
102
RTVSPost2010PropOp51
 70
     0
102
RTVSPost2010Prop52
140
1.0
102
RTVSPost2010PropOp52
 70
     0
102
RTVSPost2010Prop53
 90
        2
102
RTVSPost2010PropOp53
 70
     1
102
RTVSPost2010Prop54
  1
strokes_ogs.tif
102
RTVSPost2010PropOp54
 70
     1
102
RTVSPost2010Prop55
280
     0
102
RTVSPost2010PropOp55
 70
     1
102
RTVSPost2010Prop56
140
1.0
102
RTVSPost2010PropOp56
 70
     1
102
RTVSPost2010Prop57
140
1.0
102
RTVSPost2010PropOp57
 70
     1
102
RTVSPropertyOp0
 70
     1
102
RTVSPropertyOp1
 70
     1
102
RTVSPropertyOp2
 70
     1
102
RTVSPropertyOp3
 70
     1
102
RTVSPropertyOp4
 70
     1
102
RTVSPropertyOp5
 70
     1
102
RTVSPropertyOp6
 70
     1
102
RTVSPropertyOp7
 70
     1
102
RTVSPropertyOp8
 70
     1
102
RTVSPropertyOp9
 70
     1
102
RTVSPropertyOp10
 70
     1
102
RTVSPropertyOp11
 70
     1
102
RTVSPropertyOp12
 70
     1
102
RTVSPropertyOp13
 70
     1
102
RTVSPropertyOp14
 70
     1
102
RTVSPropertyOp15
 70
     1
102
RTVSPropertyOp16
 70
     1
102
RTVSPropertyOp17
 70
     1
102
RTVSPropertyOp18
 70
     1
102
RTVSPropertyOp19
 70
     1
102
RTVSPropertyOp20
 70
     1
102
RTVSPropertyOp21
 70
     1
102
RTVSPropertyOp22
 70
     1
102
RTVSPropertyOp23
 70
     1
102
RTVSPropertyOp24
 70
     1
102
RTVSPropertyOp25
 70
     1
102
RTVSPropertyOp26
 70
     1
102
RTVSPropertyOp27
 70
     1
102
RTVSPropertyOp28
 70
     1
102
RTVSPropertyOp29
 70
     1
102
RTVSPropertyOp30
 70
     1
102
RTVSPropertyOp31
 70
     1
102
RTVSPropertyOp32
 70
     1
102
RTVSPropertyOp33
 70
     1
102
RTVSPropertyOp34
 70
     1
102
RTVSPropertyOp35
 70
     1
102
RTVSPropertyOp36
 70
     1
102
RTVSPropertyOp37
 70
     1
102
RTVSPropertyOp38
 70
     1
102
RTVSPropertyOp39
 70
     1
102
RTVSPropertyOp40
 70
     1
102
RTVSPropertyOp41
 70
     1
102
RTVSPropertyOp42
 70
     1
102
RTVSPropertyOp43
 70
     1
102
RTVSPropertyOp44
 70
     1
102
RTVSPropertyOp45
 70
     1
102
RTVSPropertyOp46
 70
     1
102
RTVSPropertyOp47
 70
     1
102
RTVSPropertyOp48
 70
     1
102
RTVSPropertyOp49
 70
     1
102
RTVSPropertyOp50
 70
     1
102
RTVSPropertyOp51
 70
     0
102
RTVSPropertyOp52
 70
     0
102
RTVSPropertyOp53
 70
     1
102
RTVSPropertyOp54
 70
     1
102
RTVSPropertyOp55
 70
     1
102
RTVSPropertyOp56
 70
     1
102
RTVSPropertyOp57
 70
     1
102
RTVSPropertyOp58
 70
     1
102
RTVSPropertyOp59
 70
     1
102
RTVSPropertyOp60
 70
     1
102
RTVSPropertyOp61
 70
     1
102
RTVSPropertyOp62
 70
     1
  0
ENDSEC
  0
EOF
